ISO-10303-21;
HEADER;
/****************************************************************
 * Generated by software with PDElib inside                    *
 * PDElib Version v51a, created Wed 07/06/2011                  *
 * ITI Transcendata (http://www.transcendata.com/)              *
 ****************************************************************/
FILE_DESCRIPTION((''),'2;1');
FILE_NAME('C:\\eigene Dateien\\Step-Dateien\\Jochen Maier-Quick Ship\\1428-Kolbenstangengelenkauge-XX4SXXUM10.stp','2012-07-16T10:14:40',('CADNEU'),(''),'Autodesk Inventor 2012','Autodesk Inventor 2012','');
FILE_SCHEMA(('AUTOMOTIVE_DESIGN { 1 0 10303 214 1 1 1 1 }'));
ENDSEC;
DATA;
#5=APPLICATION_CONTEXT('automotive design');
#6=APPLICATION_PROTOCOL_DEFINITION('International Standard','automotive_design',2001,#5);
#7=PRODUCT_CONTEXT('',#5,'mechanical');
#8=PRODUCT('XX4SXXUM10','XX4SXXUM10',$,(#7));
#9=PRODUCT_RELATED_PRODUCT_CATEGORY('part',$,(#8));
#10=PRODUCT_DEFINITION_FORMATION('',$,#8);
#11=PRODUCT_DEFINITION_CONTEXT('part definition',#5,'design');
#12=PRODUCT_DEFINITION('',$,#10,#11);
#18=(NAMED_UNIT(*)PLANE_ANGLE_UNIT()SI_UNIT($,.RADIAN.));
#19=DIMENSIONAL_EXPONENTS(0.0,0.0,0.0,0.0,0.0,0.0,0.0);
#20=PLANE_ANGLE_MEASURE_WITH_UNIT(PLANE_ANGLE_MEASURE(0.0174532925),#18);
#24=(CONVERSION_BASED_UNIT('DEGREE',#20)NAMED_UNIT(#19)PLANE_ANGLE_UNIT());
#28=(NAMED_UNIT(*)SI_UNIT($,.STERADIAN.)SOLID_ANGLE_UNIT());
#32=(LENGTH_UNIT()NAMED_UNIT(*)SI_UNIT(.MILLI.,.METRE.));
#34=UNCERTAINTY_MEASURE_WITH_UNIT(LENGTH_MEASURE(0.01),#32,'DISTANCE_ACCURACY_VALUE','');
#36=(GEOMETRIC_REPRESENTATION_CONTEXT(3)GLOBAL_UNCERTAINTY_ASSIGNED_CONTEXT((#34))GLOBAL_UNIT_ASSIGNED_CONTEXT((#24,#28,#32))REPRESENTATION_CONTEXT('None','None'));
#37=AXIS2_PLACEMENT_3D('',#38,#39,#40);
#38=CARTESIAN_POINT('',(0.0,0.0,0.0));
#39=DIRECTION('',(0.0,0.0,1.0));
#40=DIRECTION('',(1.0,0.0,0.0));
#41=SHAPE_REPRESENTATION('',(#37),#36);
#42=PRODUCT_DEFINITION_SHAPE('','',#12);
#43=SHAPE_DEFINITION_REPRESENTATION(#42,#41);
#49=(NAMED_UNIT(*)PLANE_ANGLE_UNIT()SI_UNIT($,.RADIAN.));
#50=DIMENSIONAL_EXPONENTS(0.0,0.0,0.0,0.0,0.0,0.0,0.0);
#51=PLANE_ANGLE_MEASURE_WITH_UNIT(PLANE_ANGLE_MEASURE(0.0174532925),#49);
#55=(CONVERSION_BASED_UNIT('DEGREE',#51)NAMED_UNIT(#50)PLANE_ANGLE_UNIT());
#59=(NAMED_UNIT(*)SI_UNIT($,.STERADIAN.)SOLID_ANGLE_UNIT());
#63=(LENGTH_UNIT()NAMED_UNIT(*)SI_UNIT(.MILLI.,.METRE.));
#65=UNCERTAINTY_MEASURE_WITH_UNIT(LENGTH_MEASURE(0.000001),#63,'DISTANCE_ACCURACY_VALUE','');
#67=(GEOMETRIC_REPRESENTATION_CONTEXT(3)GLOBAL_UNCERTAINTY_ASSIGNED_CONTEXT((#65))GLOBAL_UNIT_ASSIGNED_CONTEXT((#55,#59,#63))REPRESENTATION_CONTEXT('','3D'));
#68=CARTESIAN_POINT('',(-18.258202136243714,0.0,0.0));
#69=DIRECTION('',(1.0,0.0,0.0));
#70=DIRECTION('',(0.0,1.0,0.0));
#71=AXIS2_PLACEMENT_3D('',#68,#69,#70);
#72=CONICAL_SURFACE('',#71,2.094,59.000000000000007);
#73=CARTESIAN_POINT('',(-17.0,4.188,0.0));
#74=VERTEX_POINT('',#73);
#75=CARTESIAN_POINT('',(-17.0,0.0,0.0));
#76=DIRECTION('',(1.0,0.0,0.0));
#77=DIRECTION('',(0.0,1.0,0.0));
#78=AXIS2_PLACEMENT_3D('',#75,#76,#77);
#79=CIRCLE('',#78,4.188);
#80=EDGE_CURVE('',#74,#74,#79,.T.);
#81=ORIENTED_EDGE('',*,*,#80,.T.);
#82=EDGE_LOOP('',(#81));
#83=FACE_OUTER_BOUND('',#82,.T.);
#84=ADVANCED_FACE('',(#83),#72,.F.);
#85=CARTESIAN_POINT('',(-1.305100283503149,0.0,0.0));
#86=DIRECTION('',(1.0,0.0,0.0));
#87=DIRECTION('',(0.0,1.0,0.0));
#88=AXIS2_PLACEMENT_3D('',#85,#86,#87);
#89=CONICAL_SURFACE('',#88,4.9415,30.000000000000004);
#90=CARTESIAN_POINT('',(0.0,5.695,0.0));
#91=VERTEX_POINT('',#90);
#92=CARTESIAN_POINT('',(0.0,0.0,0.0));
#93=DIRECTION('',(-1.0,0.0,0.0));
#94=DIRECTION('',(0.0,1.0,0.0));
#95=AXIS2_PLACEMENT_3D('',#92,#93,#94);
#96=CIRCLE('',#95,5.695);
#97=EDGE_CURVE('',#91,#91,#96,.T.);
#98=ORIENTED_EDGE('',*,*,#97,.F.);
#99=EDGE_LOOP('',(#98));
#100=FACE_OUTER_BOUND('',#99,.T.);
#101=CARTESIAN_POINT('',(-2.610200567006298,4.188,0.0));
#102=VERTEX_POINT('',#101);
#103=CARTESIAN_POINT('',(-2.610200567006298,0.0,0.0));
#104=DIRECTION('',(1.0,0.0,0.0));
#105=DIRECTION('',(0.0,1.0,0.0));
#106=AXIS2_PLACEMENT_3D('',#103,#104,#105);
#107=CIRCLE('',#106,4.188);
#108=EDGE_CURVE('',#102,#102,#107,.T.);
#109=ORIENTED_EDGE('',*,*,#108,.F.);
#110=EDGE_LOOP('',(#109));
#111=FACE_BOUND('',#110,.T.);
#112=ADVANCED_FACE('',(#100,#111),#89,.F.);
#113=CARTESIAN_POINT('',(-8.5,0.0,0.0));
#114=DIRECTION('',(1.0,0.0,0.0));
#115=DIRECTION('',(0.0,1.0,0.0));
#116=AXIS2_PLACEMENT_3D('',#113,#114,#115);
#117=CYLINDRICAL_SURFACE('',#116,4.188);
#118=ORIENTED_EDGE('',*,*,#108,.T.);
#119=EDGE_LOOP('',(#118));
#120=FACE_OUTER_BOUND('',#119,.T.);
#121=ORIENTED_EDGE('',*,*,#80,.F.);
#122=EDGE_LOOP('',(#121));
#123=FACE_BOUND('',#122,.T.);
#124=ADVANCED_FACE('',(#120,#123),#117,.F.);
#125=CARTESIAN_POINT('',(-25.0,5.5,-6.932154E-016));
#126=DIRECTION('',(0.0,1.0,0.0));
#127=DIRECTION('',(1.0,0.0,0.0));
#128=AXIS2_PLACEMENT_3D('',#125,#126,#127);
#129=CONICAL_SURFACE('',#128,4.338675134594814,30.000000000000068);
#130=CARTESIAN_POINT('',(-29.050000000000004,5.0,-2.194607E-015));
#131=VERTEX_POINT('',#130);
#132=CARTESIAN_POINT('',(-25.0,5.0,-6.932154E-016));
#133=DIRECTION('',(0.0,-1.0,0.0));
#134=DIRECTION('',(1.0,0.0,0.0));
#135=AXIS2_PLACEMENT_3D('',#132,#133,#134);
#136=CIRCLE('',#135,4.050000000000001);
#137=EDGE_CURVE('',#131,#131,#136,.T.);
#138=ORIENTED_EDGE('',*,*,#137,.T.);
#139=EDGE_LOOP('',(#138));
#140=FACE_OUTER_BOUND('',#139,.T.);
#141=CARTESIAN_POINT('',(-29.627350269189627,6.0,-1.275303E-015));
#142=VERTEX_POINT('',#141);
#143=CARTESIAN_POINT('',(-25.0,6.0,-6.932154E-016));
#144=DIRECTION('',(0.0,1.0,0.0));
#145=DIRECTION('',(1.0,0.0,0.0));
#146=AXIS2_PLACEMENT_3D('',#143,#144,#145);
#147=CIRCLE('',#146,4.627350269189627);
#148=EDGE_CURVE('',#142,#142,#147,.T.);
#149=ORIENTED_EDGE('',*,*,#148,.T.);
#150=EDGE_LOOP('',(#149));
#151=FACE_BOUND('',#150,.T.);
#152=ADVANCED_FACE('',(#140,#151),#129,.F.);
#153=CARTESIAN_POINT('',(-25.0,36.477006576922079,-6.932154E-016));
#154=DIRECTION('',(2.485654E-032,-1.0,4.873442E-032));
#155=DIRECTION('',(1.0,0.0,0.0));
#156=AXIS2_PLACEMENT_3D('',#153,#154,#155);
#157=CYLINDRICAL_SURFACE('',#156,4.050000000000001);
#158=CARTESIAN_POINT('',(-20.949999999999996,-5.000000000000004,-1.837547E-016));
#159=VERTEX_POINT('',#158);
#160=CARTESIAN_POINT('',(-25.0,-5.000000000000004,-6.932154E-016));
#161=DIRECTION('',(0.0,1.0,0.0));
#162=DIRECTION('',(-1.0,0.0,0.0));
#163=AXIS2_PLACEMENT_3D('',#160,#161,#162);
#164=CIRCLE('',#163,4.050000000000001);
#165=EDGE_CURVE('',#159,#159,#164,.T.);
#166=ORIENTED_EDGE('',*,*,#165,.F.);
#167=EDGE_LOOP('',(#166));
#168=FACE_OUTER_BOUND('',#167,.T.);
#169=ORIENTED_EDGE('',*,*,#137,.F.);
#170=EDGE_LOOP('',(#169));
#171=FACE_BOUND('',#170,.T.);
#172=ADVANCED_FACE('',(#168,#171),#157,.F.);
#173=CARTESIAN_POINT('',(-22.812660443953877,6.0,0.0));
#174=DIRECTION('',(0.0,1.0,0.0));
#175=DIRECTION('',(0.0,0.0,1.0));
#176=AXIS2_PLACEMENT_3D('',#173,#174,#175);
#177=PLANE('',#176);
#178=CARTESIAN_POINT('',(-25.0,6.0,-6.708203932499366));
#179=VERTEX_POINT('',#178);
#180=CARTESIAN_POINT('',(-9.158556318583223,6.000000000000001,-6.708203932499371));
#181=VERTEX_POINT('',#180);
#182=CARTESIAN_POINT('',(-25.0,6.0,-6.708203932499371));
#183=DIRECTION('',(1.0,0.0,0.0));
#184=VECTOR('',#183,15.841443681416777);
#185=LINE('',#182,#184);
#186=EDGE_CURVE('',#179,#181,#185,.T.);
#187=ORIENTED_EDGE('',*,*,#186,.F.);
#188=CARTESIAN_POINT('',(-25.0,6.0,6.708203932499366));
#189=VERTEX_POINT('',#188);
#190=CARTESIAN_POINT('',(-25.0,6.0,2.924065E-031));
#191=DIRECTION('',(0.0,-1.0,0.0));
#192=DIRECTION('',(0.0,0.0,1.0));
#193=AXIS2_PLACEMENT_3D('',#190,#191,#192);
#194=CIRCLE('',#193,6.70820393249937);
#195=EDGE_CURVE('',#189,#179,#194,.T.);
#196=ORIENTED_EDGE('',*,*,#195,.F.);
#197=CARTESIAN_POINT('',(-9.158556318583225,6.000000000000001,6.708203932499375));
#198=VERTEX_POINT('',#197);
#199=CARTESIAN_POINT('',(-9.158556318583226,6.0,6.708203932499371));
#200=DIRECTION('',(-1.0,0.0,0.0));
#201=VECTOR('',#200,15.841443681416774);
#202=LINE('',#199,#201);
#203=EDGE_CURVE('',#198,#189,#202,.T.);
#204=ORIENTED_EDGE('',*,*,#203,.F.);
#205=CARTESIAN_POINT('',(-28.0,6.000000000000001,7.824704E-016));
#206=DIRECTION('',(0.0,1.0,0.0));
#207=DIRECTION('',(0.866025403784439,0.0,0.5));
#208=AXIS2_PLACEMENT_3D('',#205,#206,#207);
#209=CIRCLE('',#208,20.000000000000004);
#210=EDGE_CURVE('',#198,#181,#209,.T.);
#211=ORIENTED_EDGE('',*,*,#210,.T.);
#212=EDGE_LOOP('',(#187,#196,#204,#211));
#213=FACE_OUTER_BOUND('',#212,.T.);
#214=ORIENTED_EDGE('',*,*,#148,.F.);
#215=EDGE_LOOP('',(#214));
#216=FACE_BOUND('',#215,.T.);
#217=ADVANCED_FACE('',(#213,#216),#177,.T.);
#218=CARTESIAN_POINT('',(-25.0,-5.500000000000003,-6.932154E-016));
#219=DIRECTION('',(0.0,-1.0,0.0));
#220=DIRECTION('',(-1.0,0.0,0.0));
#221=AXIS2_PLACEMENT_3D('',#218,#219,#220);
#222=CONICAL_SURFACE('',#221,4.338675134594814,30.000000000000171);
#223=ORIENTED_EDGE('',*,*,#165,.T.);
#224=EDGE_LOOP('',(#223));
#225=FACE_OUTER_BOUND('',#224,.T.);
#226=CARTESIAN_POINT('',(-20.372649730810373,-6.0,1.022208E-015));
#227=VERTEX_POINT('',#226);
#228=CARTESIAN_POINT('',(-25.0,-6.0,-6.932154E-016));
#229=DIRECTION('',(0.0,-1.0,0.0));
#230=DIRECTION('',(-1.0,0.0,0.0));
#231=AXIS2_PLACEMENT_3D('',#228,#229,#230);
#232=CIRCLE('',#231,4.627350269189627);
#233=EDGE_CURVE('',#227,#227,#232,.T.);
#234=ORIENTED_EDGE('',*,*,#233,.T.);
#235=EDGE_LOOP('',(#234));
#236=FACE_BOUND('',#235,.T.);
#237=ADVANCED_FACE('',(#225,#236),#222,.F.);
#238=CARTESIAN_POINT('',(-22.812660443953877,-6.0,0.0));
#239=DIRECTION('',(0.0,1.0,0.0));
#240=DIRECTION('',(0.0,0.0,1.0));
#241=AXIS2_PLACEMENT_3D('',#238,#239,#240);
#242=PLANE('',#241);
#243=CARTESIAN_POINT('',(-9.158556318583223,-6.000000000000001,-6.708203932499371));
#244=VERTEX_POINT('',#243);
#245=CARTESIAN_POINT('',(-25.0,-6.0,-6.708203932499366));
#246=VERTEX_POINT('',#245);
#247=CARTESIAN_POINT('',(-9.158556318583223,-6.0,-6.708203932499371));
#248=DIRECTION('',(-1.0,0.0,0.0));
#249=VECTOR('',#248,15.841443681416777);
#250=LINE('',#247,#249);
#251=EDGE_CURVE('',#244,#246,#250,.T.);
#252=ORIENTED_EDGE('',*,*,#251,.F.);
#253=CARTESIAN_POINT('',(-9.158556318583225,-6.000000000000001,6.708203932499375));
#254=VERTEX_POINT('',#253);
#255=CARTESIAN_POINT('',(-28.0,-6.000000000000001,7.824704E-016));
#256=DIRECTION('',(0.0,1.0,0.0));
#257=DIRECTION('',(0.866025403784439,0.0,0.5));
#258=AXIS2_PLACEMENT_3D('',#255,#256,#257);
#259=CIRCLE('',#258,20.000000000000004);
#260=EDGE_CURVE('',#254,#244,#259,.T.);
#261=ORIENTED_EDGE('',*,*,#260,.F.);
#262=CARTESIAN_POINT('',(-25.0,-6.0,6.708203932499366));
#263=VERTEX_POINT('',#262);
#264=CARTESIAN_POINT('',(-25.0,-6.0,6.708203932499371));
#265=DIRECTION('',(1.0,0.0,0.0));
#266=VECTOR('',#265,15.841443681416774);
#267=LINE('',#264,#266);
#268=EDGE_CURVE('',#263,#254,#267,.T.);
#269=ORIENTED_EDGE('',*,*,#268,.F.);
#270=CARTESIAN_POINT('',(-25.0,-6.0,2.924065E-031));
#271=DIRECTION('',(0.0,1.0,0.0));
#272=DIRECTION('',(0.0,0.0,-1.0));
#273=AXIS2_PLACEMENT_3D('',#270,#271,#272);
#274=CIRCLE('',#273,6.708203932499373);
#275=EDGE_CURVE('',#246,#263,#274,.T.);
#276=ORIENTED_EDGE('',*,*,#275,.F.);
#277=EDGE_LOOP('',(#252,#261,#269,#276));
#278=FACE_OUTER_BOUND('',#277,.T.);
#279=ORIENTED_EDGE('',*,*,#233,.F.);
#280=EDGE_LOOP('',(#279));
#281=FACE_BOUND('',#280,.T.);
#282=ADVANCED_FACE('',(#278,#281),#242,.F.);
#283=CARTESIAN_POINT('',(-28.0,-6.000000000000001,7.824704E-016));
#284=DIRECTION('',(0.0,1.0,0.0));
#285=DIRECTION('',(0.866025403784439,0.0,0.5));
#286=AXIS2_PLACEMENT_3D('',#283,#284,#285);
#287=CYLINDRICAL_SURFACE('',#286,20.000000000000004);
#288=CARTESIAN_POINT('',(-9.158556318583223,-5.999999999999997,6.708203932499373));
#289=CARTESIAN_POINT('',(-9.118556237855394,-6.125609878047587,6.595855042115426));
#290=CARTESIAN_POINT('',(-9.078771340850731,-6.247001868056623,6.480920193301234));
#291=CARTESIAN_POINT('',(-8.774583111754106,-7.153285925401221,5.574636135956636));
#292=CARTESIAN_POINT('',(-8.497518382104726,-7.843608708157674,4.57335839866475));
#293=CARTESIAN_POINT('',(-8.108000837648854,-8.767385119582009,2.360247016614959));
#294=CARTESIAN_POINT('',(-7.999999999999994,-9.000000000000002,1.147282164331006));
#295=CARTESIAN_POINT('',(-7.999999999999994,-9.000000000000002,-1.147282164331005));
#296=CARTESIAN_POINT('',(-8.108000837648854,-8.767385119582007,-2.360247016614957));
#297=CARTESIAN_POINT('',(-8.497518382104726,-7.843608708157674,-4.573358398664748));
#298=CARTESIAN_POINT('',(-8.774583111754106,-7.153285925401222,-5.574636135956636));
#299=CARTESIAN_POINT('',(-9.078771340850729,-6.247001868056624,-6.480920193301234));
#300=CARTESIAN_POINT('',(-9.118556237855392,-6.12560987804759,-6.595855042115423));
#301=CARTESIAN_POINT('',(-9.158556318583223,-6.000000000000001,-6.70820393249937));
#302=B_SPLINE_CURVE_WITH_KNOTS('',3,(#288,#289,#290,#291,#292,#293,#294,#295,#296,#297,#298,#299,#300,#301),.UNSPECIFIED.,.F.,.U.,(4,2,2,2,2,2,4),(3.394355176003962,3.445355149067856,3.789539798367159,4.13372444766646,4.477909096965762,4.822093746265064,4.873093719328958),.UNSPECIFIED.);
#303=EDGE_CURVE('',#254,#244,#302,.T.);
#304=ORIENTED_EDGE('',*,*,#303,.F.);
#305=ORIENTED_EDGE('',*,*,#260,.T.);
#306=EDGE_LOOP('',(#304,#305));
#307=FACE_OUTER_BOUND('',#306,.T.);
#308=ADVANCED_FACE('',(#307),#287,.F.);
#309=CARTESIAN_POINT('',(-25.0,-1.110223E-015,0.0));
#310=DIRECTION('',(1.0,0.0,0.0));
#311=DIRECTION('',(0.0,-1.0,0.0));
#312=AXIS2_PLACEMENT_3D('',#309,#310,#311);
#313=SPHERICAL_SURFACE('',#312,9.000000000000002);
#314=ORIENTED_EDGE('',*,*,#275,.T.);
#315=CARTESIAN_POINT('',(-25.0,0.0,0.0));
#316=DIRECTION('',(1.0,0.0,0.0));
#317=DIRECTION('',(0.0,1.0,0.0));
#318=AXIS2_PLACEMENT_3D('',#315,#316,#317);
#319=CIRCLE('',#318,8.999999999999998);
#320=EDGE_CURVE('',#189,#263,#319,.T.);
#321=ORIENTED_EDGE('',*,*,#320,.F.);
#322=ORIENTED_EDGE('',*,*,#195,.T.);
#323=CARTESIAN_POINT('',(-25.0,0.0,0.0));
#324=DIRECTION('',(1.0,0.0,0.0));
#325=DIRECTION('',(0.0,1.0,0.0));
#326=AXIS2_PLACEMENT_3D('',#323,#324,#325);
#327=CIRCLE('',#326,8.999999999999998);
#328=EDGE_CURVE('',#246,#179,#327,.T.);
#329=ORIENTED_EDGE('',*,*,#328,.F.);
#330=EDGE_LOOP('',(#314,#321,#322,#329));
#331=FACE_OUTER_BOUND('',#330,.T.);
#332=ADVANCED_FACE('',(#331),#313,.T.);
#333=CARTESIAN_POINT('',(-28.0,6.000000000000001,7.824704E-016));
#334=DIRECTION('',(0.0,1.0,0.0));
#335=DIRECTION('',(0.866025403784439,0.0,0.5));
#336=AXIS2_PLACEMENT_3D('',#333,#334,#335);
#337=CYLINDRICAL_SURFACE('',#336,20.000000000000004);
#338=CARTESIAN_POINT('',(-9.158556318583223,6.000000000000001,-6.70820393249937));
#339=CARTESIAN_POINT('',(-9.118556237855392,6.12560987804759,-6.595855042115424));
#340=CARTESIAN_POINT('',(-9.078771340850731,6.247001868056625,-6.480920193301234));
#341=CARTESIAN_POINT('',(-8.774583111754106,7.153285925401222,-5.574636135956636));
#342=CARTESIAN_POINT('',(-8.497518382104726,7.843608708157674,-4.573358398664748));
#343=CARTESIAN_POINT('',(-8.108000837648854,8.767385119582007,-2.360247016614958));
#344=CARTESIAN_POINT('',(-7.999999999999994,9.000000000000002,-1.147282164331006));
#345=CARTESIAN_POINT('',(-7.999999999999994,9.000000000000002,1.147282164331006));
#346=CARTESIAN_POINT('',(-8.108000837648854,8.767385119582007,2.360247016614958));
#347=CARTESIAN_POINT('',(-8.497518382104726,7.843608708157674,4.573358398664748));
#348=CARTESIAN_POINT('',(-8.774583111754106,7.153285925401222,5.574636135956636));
#349=CARTESIAN_POINT('',(-9.078771340850731,6.247001868056624,6.480920193301234));
#350=CARTESIAN_POINT('',(-9.118556237855394,6.125609878047587,6.595855042115425));
#351=CARTESIAN_POINT('',(-9.158556318583223,5.999999999999998,6.708203932499371));
#352=B_SPLINE_CURVE_WITH_KNOTS('',3,(#338,#339,#340,#341,#342,#343,#344,#345,#346,#347,#348,#349,#350,#351),.UNSPECIFIED.,.F.,.U.,(4,2,2,2,2,2,4),(0.638538877559656,0.68953885062355,1.033723499922852,1.377908149222153,1.722092798521455,2.066277447820757,2.117277420884651),.UNSPECIFIED.);
#353=EDGE_CURVE('',#181,#198,#352,.T.);
#354=ORIENTED_EDGE('',*,*,#353,.F.);
#355=ORIENTED_EDGE('',*,*,#210,.F.);
#356=EDGE_LOOP('',(#354,#355));
#357=FACE_OUTER_BOUND('',#356,.T.);
#358=ADVANCED_FACE('',(#357),#337,.F.);
#359=CARTESIAN_POINT('',(-12.5,0.0,0.0));
#360=DIRECTION('',(1.0,0.0,0.0));
#361=DIRECTION('',(0.0,1.0,0.0));
#362=AXIS2_PLACEMENT_3D('',#359,#360,#361);
#363=CYLINDRICAL_SURFACE('',#362,9.000000000000002);
#364=ORIENTED_EDGE('',*,*,#251,.T.);
#365=ORIENTED_EDGE('',*,*,#328,.T.);
#366=ORIENTED_EDGE('',*,*,#186,.T.);
#367=ORIENTED_EDGE('',*,*,#353,.T.);
#368=ORIENTED_EDGE('',*,*,#203,.T.);
#369=ORIENTED_EDGE('',*,*,#320,.T.);
#370=ORIENTED_EDGE('',*,*,#268,.T.);
#371=ORIENTED_EDGE('',*,*,#303,.T.);
#372=EDGE_LOOP('',(#364,#365,#366,#367,#368,#369,#370,#371));
#373=FACE_OUTER_BOUND('',#372,.T.);
#374=CARTESIAN_POINT('',(0.0,9.000000000000004,0.0));
#375=VERTEX_POINT('',#374);
#376=CARTESIAN_POINT('',(0.0,0.0,0.0));
#377=DIRECTION('',(1.0,0.0,0.0));
#378=DIRECTION('',(0.0,1.0,0.0));
#379=AXIS2_PLACEMENT_3D('',#376,#377,#378);
#380=CIRCLE('',#379,9.000000000000004);
#381=EDGE_CURVE('',#375,#375,#380,.T.);
#382=ORIENTED_EDGE('',*,*,#381,.F.);
#383=EDGE_LOOP('',(#382));
#384=FACE_BOUND('',#383,.T.);
#385=ADVANCED_FACE('',(#373,#384),#363,.T.);
#386=CARTESIAN_POINT('',(0.0,4.500000000000004,0.0));
#387=DIRECTION('',(1.0,0.0,0.0));
#388=DIRECTION('',(0.0,0.0,-1.0));
#389=AXIS2_PLACEMENT_3D('',#386,#387,#388);
#390=PLANE('',#389);
#391=ORIENTED_EDGE('',*,*,#381,.T.);
#392=EDGE_LOOP('',(#391));
#393=FACE_OUTER_BOUND('',#392,.T.);
#394=ORIENTED_EDGE('',*,*,#97,.T.);
#395=EDGE_LOOP('',(#394));
#396=FACE_BOUND('',#395,.T.);
#397=ADVANCED_FACE('',(#393,#396),#390,.T.);
#398=CLOSED_SHELL('',(#84,#112,#124,#152,#172,#217,#237,#282,#308,#332,#358,#385,#397));
#399=MANIFOLD_SOLID_BREP('Volumenk\S\vrper1',#398);
#400=COLOUR_RGB('Zink',0.674509823322296,0.764705896377563,0.811764717102051);
#401=FILL_AREA_STYLE_COLOUR('Zink',#400);
#402=FILL_AREA_STYLE('Zink',(#401));
#403=SURFACE_STYLE_FILL_AREA(#402);
#404=SURFACE_SIDE_STYLE('Zink',(#403));
#405=SURFACE_STYLE_USAGE(.BOTH.,#404);
#406=PRESENTATION_STYLE_ASSIGNMENT((#405));
#407=STYLED_ITEM('',(#406),#399);
#408=MECHANICAL_DESIGN_GEOMETRIC_PRESENTATION_REPRESENTATION('',(#407),#36);
#409=ADVANCED_BREP_SHAPE_REPRESENTATION('ABSR',(#399),#36);
#410=SHAPE_REPRESENTATION_RELATIONSHIP('SRR','None',#409,#41);
ENDSEC;
END-ISO-10303-21;
