ISO-10303-21;
HEADER;
/****************************************************************
 * Generated by software with PDElib inside                    *
 * PDElib Version v51a, created Wed 07/06/2011                  *
 * ITI Transcendata (http://www.transcendata.com/)              *
 ****************************************************************/
FILE_DESCRIPTION((''),'2;1');
FILE_NAME('C:\\eigene Dateien\\Step-Dateien\\Jochen Maier-Quick Ship\\2040-Kolbenstangengelenkauge-XX5SXXUM14x1.5.stp','2012-07-16T11:38:52',('CADNEU'),(''),'Autodesk Inventor 2012','Autodesk Inventor 2012','');
FILE_SCHEMA(('AUTOMOTIVE_DESIGN { 1 0 10303 214 1 1 1 1 }'));
ENDSEC;
DATA;
#5=APPLICATION_CONTEXT('automotive design');
#6=APPLICATION_PROTOCOL_DEFINITION('International Standard','automotive_design',2001,#5);
#7=PRODUCT_CONTEXT('',#5,'mechanical');
#8=PRODUCT('XX5SXXUM14x1.5','XX5SXXUM14x1.5',$,(#7));
#9=PRODUCT_RELATED_PRODUCT_CATEGORY('part',$,(#8));
#10=PRODUCT_DEFINITION_FORMATION('',$,#8);
#11=PRODUCT_DEFINITION_CONTEXT('part definition',#5,'design');
#12=PRODUCT_DEFINITION('',$,#10,#11);
#18=(NAMED_UNIT(*)PLANE_ANGLE_UNIT()SI_UNIT($,.RADIAN.));
#19=DIMENSIONAL_EXPONENTS(0.0,0.0,0.0,0.0,0.0,0.0,0.0);
#20=PLANE_ANGLE_MEASURE_WITH_UNIT(PLANE_ANGLE_MEASURE(0.0174532925),#18);
#24=(CONVERSION_BASED_UNIT('DEGREE',#20)NAMED_UNIT(#19)PLANE_ANGLE_UNIT());
#28=(NAMED_UNIT(*)SI_UNIT($,.STERADIAN.)SOLID_ANGLE_UNIT());
#32=(LENGTH_UNIT()NAMED_UNIT(*)SI_UNIT(.MILLI.,.METRE.));
#34=UNCERTAINTY_MEASURE_WITH_UNIT(LENGTH_MEASURE(0.01),#32,'DISTANCE_ACCURACY_VALUE','');
#36=(GEOMETRIC_REPRESENTATION_CONTEXT(3)GLOBAL_UNCERTAINTY_ASSIGNED_CONTEXT((#34))GLOBAL_UNIT_ASSIGNED_CONTEXT((#24,#28,#32))REPRESENTATION_CONTEXT('None','None'));
#37=AXIS2_PLACEMENT_3D('',#38,#39,#40);
#38=CARTESIAN_POINT('',(0.0,0.0,0.0));
#39=DIRECTION('',(0.0,0.0,1.0));
#40=DIRECTION('',(1.0,0.0,0.0));
#41=SHAPE_REPRESENTATION('',(#37),#36);
#42=PRODUCT_DEFINITION_SHAPE('','',#12);
#43=SHAPE_DEFINITION_REPRESENTATION(#42,#41);
#49=(NAMED_UNIT(*)PLANE_ANGLE_UNIT()SI_UNIT($,.RADIAN.));
#50=DIMENSIONAL_EXPONENTS(0.0,0.0,0.0,0.0,0.0,0.0,0.0);
#51=PLANE_ANGLE_MEASURE_WITH_UNIT(PLANE_ANGLE_MEASURE(0.0174532925),#49);
#55=(CONVERSION_BASED_UNIT('DEGREE',#51)NAMED_UNIT(#50)PLANE_ANGLE_UNIT());
#59=(NAMED_UNIT(*)SI_UNIT($,.STERADIAN.)SOLID_ANGLE_UNIT());
#63=(LENGTH_UNIT()NAMED_UNIT(*)SI_UNIT(.MILLI.,.METRE.));
#65=UNCERTAINTY_MEASURE_WITH_UNIT(LENGTH_MEASURE(0.000001),#63,'DISTANCE_ACCURACY_VALUE','');
#67=(GEOMETRIC_REPRESENTATION_CONTEXT(3)GLOBAL_UNCERTAINTY_ASSIGNED_CONTEXT((#65))GLOBAL_UNIT_ASSIGNED_CONTEXT((#55,#59,#63))REPRESENTATION_CONTEXT('','3D'));
#68=CARTESIAN_POINT('',(-23.859062755271271,0.0,0.0));
#69=DIRECTION('',(1.0,0.0,0.0));
#70=DIRECTION('',(0.0,1.0,0.0));
#71=AXIS2_PLACEMENT_3D('',#68,#69,#70);
#72=CONICAL_SURFACE('',#71,3.094,59.000000000000021);
#73=CARTESIAN_POINT('',(-22.0,6.188000000000001,0.0));
#74=VERTEX_POINT('',#73);
#75=CARTESIAN_POINT('',(-22.0,0.0,0.0));
#76=DIRECTION('',(1.0,0.0,0.0));
#77=DIRECTION('',(0.0,1.0,0.0));
#78=AXIS2_PLACEMENT_3D('',#75,#76,#77);
#79=CIRCLE('',#78,6.188000000000001);
#80=EDGE_CURVE('',#74,#74,#79,.T.);
#81=ORIENTED_EDGE('',*,*,#80,.T.);
#82=EDGE_LOOP('',(#81));
#83=FACE_OUTER_BOUND('',#82,.T.);
#84=ADVANCED_FACE('',(#83),#72,.F.);
#85=CARTESIAN_POINT('',(-1.551917523581714,0.0,0.0));
#86=DIRECTION('',(1.0,0.0,0.0));
#87=DIRECTION('',(0.0,1.0,0.0));
#88=AXIS2_PLACEMENT_3D('',#85,#86,#87);
#89=CONICAL_SURFACE('',#88,7.084000000000001,30.000000000000004);
#90=CARTESIAN_POINT('',(0.0,7.98,0.0));
#91=VERTEX_POINT('',#90);
#92=CARTESIAN_POINT('',(-2.775558E-016,0.0,0.0));
#93=DIRECTION('',(-1.0,0.0,0.0));
#94=DIRECTION('',(0.0,1.0,0.0));
#95=AXIS2_PLACEMENT_3D('',#92,#93,#94);
#96=CIRCLE('',#95,7.98);
#97=EDGE_CURVE('',#91,#91,#96,.T.);
#98=ORIENTED_EDGE('',*,*,#97,.F.);
#99=EDGE_LOOP('',(#98));
#100=FACE_OUTER_BOUND('',#99,.T.);
#101=CARTESIAN_POINT('',(-3.103835047163428,6.188000000000001,0.0));
#102=VERTEX_POINT('',#101);
#103=CARTESIAN_POINT('',(-3.103835047163428,0.0,0.0));
#104=DIRECTION('',(1.0,0.0,0.0));
#105=DIRECTION('',(0.0,1.0,0.0));
#106=AXIS2_PLACEMENT_3D('',#103,#104,#105);
#107=CIRCLE('',#106,6.188000000000001);
#108=EDGE_CURVE('',#102,#102,#107,.T.);
#109=ORIENTED_EDGE('',*,*,#108,.F.);
#110=EDGE_LOOP('',(#109));
#111=FACE_BOUND('',#110,.T.);
#112=ADVANCED_FACE('',(#100,#111),#89,.F.);
#113=CARTESIAN_POINT('',(-11.0,0.0,0.0));
#114=DIRECTION('',(1.0,0.0,0.0));
#115=DIRECTION('',(0.0,1.0,0.0));
#116=AXIS2_PLACEMENT_3D('',#113,#114,#115);
#117=CYLINDRICAL_SURFACE('',#116,6.188000000000001);
#118=ORIENTED_EDGE('',*,*,#108,.T.);
#119=EDGE_LOOP('',(#118));
#120=FACE_OUTER_BOUND('',#119,.T.);
#121=ORIENTED_EDGE('',*,*,#80,.F.);
#122=EDGE_LOOP('',(#121));
#123=FACE_BOUND('',#122,.T.);
#124=ADVANCED_FACE('',(#120,#123),#117,.F.);
#125=CARTESIAN_POINT('',(-40.0,-6.500000000000004,-2.220446E-015));
#126=DIRECTION('',(0.0,-1.0,0.0));
#127=DIRECTION('',(-1.0,0.0,0.0));
#128=AXIS2_PLACEMENT_3D('',#125,#126,#127);
#129=CONICAL_SURFACE('',#128,7.338675134594812,29.999999999999986);
#130=CARTESIAN_POINT('',(-32.950000000000003,-6.000000000000005,-4.595372E-015));
#131=VERTEX_POINT('',#130);
#132=CARTESIAN_POINT('',(-40.0,-6.000000000000005,-2.220446E-015));
#133=DIRECTION('',(0.0,1.0,0.0));
#134=DIRECTION('',(-1.0,0.0,0.0));
#135=AXIS2_PLACEMENT_3D('',#132,#133,#134);
#136=CIRCLE('',#135,7.050000000000001);
#137=EDGE_CURVE('',#131,#131,#136,.T.);
#138=ORIENTED_EDGE('',*,*,#137,.T.);
#139=EDGE_LOOP('',(#138));
#140=FACE_OUTER_BOUND('',#139,.T.);
#141=CARTESIAN_POINT('',(-32.37264973081038,-7.000000000000001,-2.921763E-015));
#142=VERTEX_POINT('',#141);
#143=CARTESIAN_POINT('',(-40.0,-7.000000000000001,-2.220446E-015));
#144=DIRECTION('',(0.0,-1.0,0.0));
#145=DIRECTION('',(-1.0,0.0,0.0));
#146=AXIS2_PLACEMENT_3D('',#143,#144,#145);
#147=CIRCLE('',#146,7.627350269189623);
#148=EDGE_CURVE('',#142,#142,#147,.T.);
#149=ORIENTED_EDGE('',*,*,#148,.T.);
#150=EDGE_LOOP('',(#149));
#151=FACE_BOUND('',#150,.T.);
#152=ADVANCED_FACE('',(#140,#151),#129,.F.);
#153=CARTESIAN_POINT('',(-40.0,56.294944505860812,-2.220446E-015));
#154=DIRECTION('',(-2.023664E-031,-1.0,-4.742323E-032));
#155=DIRECTION('',(1.0,0.0,0.0));
#156=AXIS2_PLACEMENT_3D('',#153,#154,#155);
#157=CYLINDRICAL_SURFACE('',#156,7.050000000000001);
#158=CARTESIAN_POINT('',(-47.049999999999997,6.000000000000005,-1.572215E-015));
#159=VERTEX_POINT('',#158);
#160=CARTESIAN_POINT('',(-40.0,6.000000000000005,-2.220446E-015));
#161=DIRECTION('',(0.0,-1.0,0.0));
#162=DIRECTION('',(1.0,0.0,0.0));
#163=AXIS2_PLACEMENT_3D('',#160,#161,#162);
#164=CIRCLE('',#163,7.050000000000001);
#165=EDGE_CURVE('',#159,#159,#164,.T.);
#166=ORIENTED_EDGE('',*,*,#165,.F.);
#167=EDGE_LOOP('',(#166));
#168=FACE_OUTER_BOUND('',#167,.T.);
#169=ORIENTED_EDGE('',*,*,#137,.F.);
#170=EDGE_LOOP('',(#169));
#171=FACE_BOUND('',#170,.T.);
#172=ADVANCED_FACE('',(#168,#171),#157,.F.);
#173=CARTESIAN_POINT('',(-38.999999999999993,-7.000000000000001,-3.676713E-016));
#174=DIRECTION('',(0.0,1.0,0.0));
#175=DIRECTION('',(0.0,0.0,1.0));
#176=AXIS2_PLACEMENT_3D('',#173,#174,#175);
#177=PLANE('',#176);
#178=CARTESIAN_POINT('',(-19.000000000000004,-7.000000000000001,-10.356157588603985));
#179=VERTEX_POINT('',#178);
#180=CARTESIAN_POINT('',(-40.0,-7.000000000000001,-10.356157588603983));
#181=VERTEX_POINT('',#180);
#182=CARTESIAN_POINT('',(-19.000000000000007,-7.000000000000001,-10.356157588603985));
#183=DIRECTION('',(-1.0,0.0,0.0));
#184=VECTOR('',#183,20.999999999999993);
#185=LINE('',#182,#184);
#186=EDGE_CURVE('',#179,#181,#185,.T.);
#187=ORIENTED_EDGE('',*,*,#186,.F.);
#188=CARTESIAN_POINT('',(-19.0,-7.000000000000001,10.356157588603985));
#189=VERTEX_POINT('',#188);
#190=CARTESIAN_POINT('',(-19.000000000000004,-7.000000000000001,-10.356157588603985));
#191=DIRECTION('',(0.0,0.0,1.0));
#192=VECTOR('',#191,20.712315177207969);
#193=LINE('',#190,#192);
#194=EDGE_CURVE('',#179,#189,#193,.T.);
#195=ORIENTED_EDGE('',*,*,#194,.T.);
#196=CARTESIAN_POINT('',(-40.0,-7.000000000000001,10.356157588603983));
#197=VERTEX_POINT('',#196);
#198=CARTESIAN_POINT('',(-40.0,-7.000000000000001,10.356157588603985));
#199=DIRECTION('',(1.0,0.0,0.0));
#200=VECTOR('',#199,21.0);
#201=LINE('',#198,#200);
#202=EDGE_CURVE('',#197,#189,#201,.T.);
#203=ORIENTED_EDGE('',*,*,#202,.F.);
#204=CARTESIAN_POINT('',(-40.0,-7.000000000000001,-3.319626E-031));
#205=DIRECTION('',(0.0,1.0,0.0));
#206=DIRECTION('',(0.0,0.0,-1.0));
#207=AXIS2_PLACEMENT_3D('',#204,#205,#206);
#208=CIRCLE('',#207,10.356157588603995);
#209=EDGE_CURVE('',#181,#197,#208,.T.);
#210=ORIENTED_EDGE('',*,*,#209,.F.);
#211=EDGE_LOOP('',(#187,#195,#203,#210));
#212=FACE_OUTER_BOUND('',#211,.T.);
#213=ORIENTED_EDGE('',*,*,#148,.F.);
#214=EDGE_LOOP('',(#213));
#215=FACE_BOUND('',#214,.T.);
#216=ADVANCED_FACE('',(#212,#215),#177,.F.);
#217=CARTESIAN_POINT('',(-40.0,6.500000000000004,-2.220446E-015));
#218=DIRECTION('',(0.0,1.0,0.0));
#219=DIRECTION('',(1.0,0.0,0.0));
#220=AXIS2_PLACEMENT_3D('',#217,#218,#219);
#221=CONICAL_SURFACE('',#220,7.338675134594814,30.000000000000171);
#222=ORIENTED_EDGE('',*,*,#165,.T.);
#223=EDGE_LOOP('',(#222));
#224=FACE_OUTER_BOUND('',#223,.T.);
#225=CARTESIAN_POINT('',(-47.62735026918962,7.000000000000001,3.489712E-016));
#226=VERTEX_POINT('',#225);
#227=CARTESIAN_POINT('',(-40.0,7.000000000000001,-2.220446E-015));
#228=DIRECTION('',(0.0,1.0,0.0));
#229=DIRECTION('',(1.0,0.0,0.0));
#230=AXIS2_PLACEMENT_3D('',#227,#228,#229);
#231=CIRCLE('',#230,7.627350269189628);
#232=EDGE_CURVE('',#226,#226,#231,.T.);
#233=ORIENTED_EDGE('',*,*,#232,.T.);
#234=EDGE_LOOP('',(#233));
#235=FACE_BOUND('',#234,.T.);
#236=ADVANCED_FACE('',(#224,#235),#221,.F.);
#237=CARTESIAN_POINT('',(-38.999999999999993,7.000000000000001,-3.676713E-016));
#238=DIRECTION('',(0.0,1.0,0.0));
#239=DIRECTION('',(0.0,0.0,1.0));
#240=AXIS2_PLACEMENT_3D('',#237,#238,#239);
#241=PLANE('',#240);
#242=CARTESIAN_POINT('',(-40.0,7.000000000000001,-10.356157588603983));
#243=VERTEX_POINT('',#242);
#244=CARTESIAN_POINT('',(-19.000000000000004,7.000000000000001,-10.356157588603985));
#245=VERTEX_POINT('',#244);
#246=CARTESIAN_POINT('',(-40.0,7.000000000000001,-10.356157588603985));
#247=DIRECTION('',(1.0,0.0,0.0));
#248=VECTOR('',#247,20.999999999999993);
#249=LINE('',#246,#248);
#250=EDGE_CURVE('',#243,#245,#249,.T.);
#251=ORIENTED_EDGE('',*,*,#250,.F.);
#252=CARTESIAN_POINT('',(-40.0,7.000000000000001,10.356157588603983));
#253=VERTEX_POINT('',#252);
#254=CARTESIAN_POINT('',(-40.0,7.000000000000001,-3.319626E-031));
#255=DIRECTION('',(0.0,-1.0,0.0));
#256=DIRECTION('',(0.0,0.0,1.0));
#257=AXIS2_PLACEMENT_3D('',#254,#255,#256);
#258=CIRCLE('',#257,10.356157588603992);
#259=EDGE_CURVE('',#253,#243,#258,.T.);
#260=ORIENTED_EDGE('',*,*,#259,.F.);
#261=CARTESIAN_POINT('',(-19.0,7.000000000000001,10.356157588603985));
#262=VERTEX_POINT('',#261);
#263=CARTESIAN_POINT('',(-19.0,7.000000000000001,10.356157588603985));
#264=DIRECTION('',(-1.0,0.0,0.0));
#265=VECTOR('',#264,21.0);
#266=LINE('',#263,#265);
#267=EDGE_CURVE('',#262,#253,#266,.T.);
#268=ORIENTED_EDGE('',*,*,#267,.F.);
#269=CARTESIAN_POINT('',(-19.000000000000004,7.000000000000001,-10.356157588603985));
#270=DIRECTION('',(0.0,0.0,1.0));
#271=VECTOR('',#270,20.712315177207969);
#272=LINE('',#269,#271);
#273=EDGE_CURVE('',#245,#262,#272,.T.);
#274=ORIENTED_EDGE('',*,*,#273,.F.);
#275=EDGE_LOOP('',(#251,#260,#268,#274));
#276=FACE_OUTER_BOUND('',#275,.T.);
#277=ORIENTED_EDGE('',*,*,#232,.F.);
#278=EDGE_LOOP('',(#277));
#279=FACE_BOUND('',#278,.T.);
#280=ADVANCED_FACE('',(#276,#279),#241,.T.);
#281=CARTESIAN_POINT('',(-19.000000000000004,-7.000000000000001,-15.0));
#282=DIRECTION('',(-1.0,0.0,0.0));
#283=DIRECTION('',(0.0,0.0,-1.0));
#284=AXIS2_PLACEMENT_3D('',#281,#282,#283);
#285=PLANE('',#284);
#286=CARTESIAN_POINT('',(-19.000000000000004,0.0,0.0));
#287=DIRECTION('',(1.0,0.0,0.0));
#288=DIRECTION('',(0.0,1.0,0.0));
#289=AXIS2_PLACEMENT_3D('',#286,#287,#288);
#290=CIRCLE('',#289,12.499999999999996);
#291=EDGE_CURVE('',#189,#179,#290,.T.);
#292=ORIENTED_EDGE('',*,*,#291,.F.);
#293=ORIENTED_EDGE('',*,*,#194,.F.);
#294=EDGE_LOOP('',(#292,#293));
#295=FACE_OUTER_BOUND('',#294,.T.);
#296=ADVANCED_FACE('',(#295),#285,.T.);
#297=CARTESIAN_POINT('',(-40.0,-2.784969E-015,0.0));
#298=DIRECTION('',(1.0,0.0,0.0));
#299=DIRECTION('',(0.0,-1.0,0.0));
#300=AXIS2_PLACEMENT_3D('',#297,#298,#299);
#301=SPHERICAL_SURFACE('',#300,12.500000000000002);
#302=ORIENTED_EDGE('',*,*,#209,.T.);
#303=CARTESIAN_POINT('',(-40.0,0.0,0.0));
#304=DIRECTION('',(1.0,0.0,0.0));
#305=DIRECTION('',(0.0,1.0,0.0));
#306=AXIS2_PLACEMENT_3D('',#303,#304,#305);
#307=CIRCLE('',#306,12.499999999999993);
#308=EDGE_CURVE('',#253,#197,#307,.T.);
#309=ORIENTED_EDGE('',*,*,#308,.F.);
#310=ORIENTED_EDGE('',*,*,#259,.T.);
#311=CARTESIAN_POINT('',(-40.0,0.0,0.0));
#312=DIRECTION('',(1.0,0.0,0.0));
#313=DIRECTION('',(0.0,1.0,0.0));
#314=AXIS2_PLACEMENT_3D('',#311,#312,#313);
#315=CIRCLE('',#314,12.499999999999993);
#316=EDGE_CURVE('',#181,#243,#315,.T.);
#317=ORIENTED_EDGE('',*,*,#316,.F.);
#318=EDGE_LOOP('',(#302,#309,#310,#317));
#319=FACE_OUTER_BOUND('',#318,.T.);
#320=ADVANCED_FACE('',(#319),#301,.T.);
#321=CARTESIAN_POINT('',(-19.000000000000004,7.000000000000001,-15.0));
#322=DIRECTION('',(1.0,0.0,0.0));
#323=DIRECTION('',(0.0,0.0,-1.0));
#324=AXIS2_PLACEMENT_3D('',#321,#322,#323);
#325=PLANE('',#324);
#326=CARTESIAN_POINT('',(-19.000000000000004,0.0,0.0));
#327=DIRECTION('',(1.0,0.0,0.0));
#328=DIRECTION('',(0.0,1.0,0.0));
#329=AXIS2_PLACEMENT_3D('',#326,#327,#328);
#330=CIRCLE('',#329,12.499999999999996);
#331=EDGE_CURVE('',#245,#262,#330,.T.);
#332=ORIENTED_EDGE('',*,*,#331,.F.);
#333=ORIENTED_EDGE('',*,*,#273,.T.);
#334=EDGE_LOOP('',(#332,#333));
#335=FACE_OUTER_BOUND('',#334,.T.);
#336=ADVANCED_FACE('',(#335),#325,.F.);
#337=CARTESIAN_POINT('',(-20.5,0.0,0.0));
#338=DIRECTION('',(1.0,0.0,0.0));
#339=DIRECTION('',(0.0,1.0,0.0));
#340=AXIS2_PLACEMENT_3D('',#337,#338,#339);
#341=CYLINDRICAL_SURFACE('',#340,12.499999999999996);
#342=ORIENTED_EDGE('',*,*,#186,.T.);
#343=ORIENTED_EDGE('',*,*,#316,.T.);
#344=ORIENTED_EDGE('',*,*,#250,.T.);
#345=ORIENTED_EDGE('',*,*,#331,.T.);
#346=ORIENTED_EDGE('',*,*,#267,.T.);
#347=ORIENTED_EDGE('',*,*,#308,.T.);
#348=ORIENTED_EDGE('',*,*,#202,.T.);
#349=ORIENTED_EDGE('',*,*,#291,.T.);
#350=EDGE_LOOP('',(#342,#343,#344,#345,#346,#347,#348,#349));
#351=FACE_OUTER_BOUND('',#350,.T.);
#352=CARTESIAN_POINT('',(-1.000000000000001,12.5,0.0));
#353=VERTEX_POINT('',#352);
#354=CARTESIAN_POINT('',(-0.999999999999996,0.0,0.0));
#355=DIRECTION('',(1.0,0.0,0.0));
#356=DIRECTION('',(0.0,1.0,0.0));
#357=AXIS2_PLACEMENT_3D('',#354,#355,#356);
#358=CIRCLE('',#357,12.5);
#359=EDGE_CURVE('',#353,#353,#358,.T.);
#360=ORIENTED_EDGE('',*,*,#359,.F.);
#361=EDGE_LOOP('',(#360));
#362=FACE_BOUND('',#361,.T.);
#363=ADVANCED_FACE('',(#351,#362),#341,.T.);
#364=CARTESIAN_POINT('',(-0.499999999999998,0.0,0.0));
#365=DIRECTION('',(-1.0,0.0,0.0));
#366=DIRECTION('',(0.0,1.0,0.0));
#367=AXIS2_PLACEMENT_3D('',#364,#365,#366);
#368=CONICAL_SURFACE('',#367,12.0,45.000000000000021);
#369=CARTESIAN_POINT('',(-6.183838E-016,11.5,0.0));
#370=VERTEX_POINT('',#369);
#371=CARTESIAN_POINT('',(0.0,0.0,0.0));
#372=DIRECTION('',(1.0,0.0,0.0));
#373=DIRECTION('',(0.0,1.0,0.0));
#374=AXIS2_PLACEMENT_3D('',#371,#372,#373);
#375=CIRCLE('',#374,11.5);
#376=EDGE_CURVE('',#370,#370,#375,.T.);
#377=ORIENTED_EDGE('',*,*,#376,.F.);
#378=EDGE_LOOP('',(#377));
#379=FACE_OUTER_BOUND('',#378,.T.);
#380=ORIENTED_EDGE('',*,*,#359,.T.);
#381=EDGE_LOOP('',(#380));
#382=FACE_BOUND('',#381,.T.);
#383=ADVANCED_FACE('',(#379,#382),#368,.T.);
#384=CARTESIAN_POINT('',(-3.091919E-016,5.75,0.0));
#385=DIRECTION('',(1.0,0.0,0.0));
#386=DIRECTION('',(0.0,0.0,-1.0));
#387=AXIS2_PLACEMENT_3D('',#384,#385,#386);
#388=PLANE('',#387);
#389=ORIENTED_EDGE('',*,*,#376,.T.);
#390=EDGE_LOOP('',(#389));
#391=FACE_OUTER_BOUND('',#390,.T.);
#392=ORIENTED_EDGE('',*,*,#97,.T.);
#393=EDGE_LOOP('',(#392));
#394=FACE_BOUND('',#393,.T.);
#395=ADVANCED_FACE('',(#391,#394),#388,.T.);
#396=CLOSED_SHELL('',(#84,#112,#124,#152,#172,#216,#236,#280,#296,#320,#336,#363,#383,#395));
#397=MANIFOLD_SOLID_BREP('Volumenk\S\vrper1',#396);
#398=COLOUR_RGB('Zink',0.674509823322296,0.764705896377563,0.811764717102051);
#399=FILL_AREA_STYLE_COLOUR('Zink',#398);
#400=FILL_AREA_STYLE('Zink',(#399));
#401=SURFACE_STYLE_FILL_AREA(#400);
#402=SURFACE_SIDE_STYLE('Zink',(#401));
#403=SURFACE_STYLE_USAGE(.BOTH.,#402);
#404=PRESENTATION_STYLE_ASSIGNMENT((#403));
#405=STYLED_ITEM('',(#404),#397);
#406=MECHANICAL_DESIGN_GEOMETRIC_PRESENTATION_REPRESENTATION('',(#405),#36);
#407=ADVANCED_BREP_SHAPE_REPRESENTATION('ABSR',(#397),#36);
#408=SHAPE_REPRESENTATION_RELATIONSHIP('SRR','None',#407,#41);
ENDSEC;
END-ISO-10303-21;
