ISO-10303-21;
HEADER;
/****************************************************************
 * Generated by software with PDElib inside                    *
 * PDElib Version v51a, created Wed 07/06/2011                  *
 * ITI Transcendata (http://www.transcendata.com/)              *
 ****************************************************************/
FILE_DESCRIPTION((''),'2;1');
FILE_NAME('C:\\eigene Dateien\\Step-Dateien\\Jochen Maier-Quick Ship\\0308-XX1QXXUXXM3.stp','2012-07-16T09:20:12',('CADNEU'),(''),'Autodesk Inventor 2012','Autodesk Inventor 2012','');
FILE_SCHEMA(('AUTOMOTIVE_DESIGN { 1 0 10303 214 1 1 1 1 }'));
ENDSEC;
DATA;
#5=APPLICATION_CONTEXT('automotive design');
#6=APPLICATION_PROTOCOL_DEFINITION('International Standard','automotive_design',2001,#5);
#7=PRODUCT_CONTEXT('',#5,'mechanical');
#8=PRODUCT('XX1QXXUXXM3','XX1QXXUXXM3',$,(#7));
#9=PRODUCT_RELATED_PRODUCT_CATEGORY('part',$,(#8));
#10=PRODUCT_DEFINITION_FORMATION('',$,#8);
#11=PRODUCT_DEFINITION_CONTEXT('part definition',#5,'design');
#12=PRODUCT_DEFINITION('',$,#10,#11);
#18=(NAMED_UNIT(*)PLANE_ANGLE_UNIT()SI_UNIT($,.RADIAN.));
#19=DIMENSIONAL_EXPONENTS(0.0,0.0,0.0,0.0,0.0,0.0,0.0);
#20=PLANE_ANGLE_MEASURE_WITH_UNIT(PLANE_ANGLE_MEASURE(0.0174532925),#18);
#24=(CONVERSION_BASED_UNIT('DEGREE',#20)NAMED_UNIT(#19)PLANE_ANGLE_UNIT());
#28=(NAMED_UNIT(*)SI_UNIT($,.STERADIAN.)SOLID_ANGLE_UNIT());
#32=(LENGTH_UNIT()NAMED_UNIT(*)SI_UNIT(.MILLI.,.METRE.));
#34=UNCERTAINTY_MEASURE_WITH_UNIT(LENGTH_MEASURE(0.01),#32,'DISTANCE_ACCURACY_VALUE','');
#36=(GEOMETRIC_REPRESENTATION_CONTEXT(3)GLOBAL_UNCERTAINTY_ASSIGNED_CONTEXT((#34))GLOBAL_UNIT_ASSIGNED_CONTEXT((#24,#28,#32))REPRESENTATION_CONTEXT('None','None'));
#37=AXIS2_PLACEMENT_3D('',#38,#39,#40);
#38=CARTESIAN_POINT('',(0.0,0.0,0.0));
#39=DIRECTION('',(0.0,0.0,1.0));
#40=DIRECTION('',(1.0,0.0,0.0));
#41=SHAPE_REPRESENTATION('',(#37),#36);
#42=PRODUCT_DEFINITION_SHAPE('','',#12);
#43=SHAPE_DEFINITION_REPRESENTATION(#42,#41);
#49=(NAMED_UNIT(*)PLANE_ANGLE_UNIT()SI_UNIT($,.RADIAN.));
#50=DIMENSIONAL_EXPONENTS(0.0,0.0,0.0,0.0,0.0,0.0,0.0);
#51=PLANE_ANGLE_MEASURE_WITH_UNIT(PLANE_ANGLE_MEASURE(0.0174532925),#49);
#55=(CONVERSION_BASED_UNIT('DEGREE',#51)NAMED_UNIT(#50)PLANE_ANGLE_UNIT());
#59=(NAMED_UNIT(*)SI_UNIT($,.STERADIAN.)SOLID_ANGLE_UNIT());
#63=(LENGTH_UNIT()NAMED_UNIT(*)SI_UNIT(.MILLI.,.METRE.));
#65=UNCERTAINTY_MEASURE_WITH_UNIT(LENGTH_MEASURE(0.000001),#63,'DISTANCE_ACCURACY_VALUE','');
#67=(GEOMETRIC_REPRESENTATION_CONTEXT(3)GLOBAL_UNCERTAINTY_ASSIGNED_CONTEXT((#65))GLOBAL_UNIT_ASSIGNED_CONTEXT((#55,#59,#63))REPRESENTATION_CONTEXT('','3D'));
#68=CARTESIAN_POINT('',(-5.369379065547193,0.0,0.0));
#69=DIRECTION('',(1.0,0.0,0.0));
#70=DIRECTION('',(0.0,1.0,0.0));
#71=AXIS2_PLACEMENT_3D('',#68,#69,#70);
#72=CONICAL_SURFACE('',#71,0.61475,59.000000000000021);
#73=CARTESIAN_POINT('',(-5.0,1.2295,0.0));
#74=VERTEX_POINT('',#73);
#75=CARTESIAN_POINT('',(-5.0,0.0,0.0));
#76=DIRECTION('',(1.0,0.0,0.0));
#77=DIRECTION('',(0.0,1.0,0.0));
#78=AXIS2_PLACEMENT_3D('',#75,#76,#77);
#79=CIRCLE('',#78,1.2295);
#80=EDGE_CURVE('',#74,#74,#79,.T.);
#81=ORIENTED_EDGE('',*,*,#80,.T.);
#82=EDGE_LOOP('',(#81));
#83=FACE_OUTER_BOUND('',#82,.T.);
#84=ADVANCED_FACE('',(#83),#72,.F.);
#85=CARTESIAN_POINT('',(-0.5,0.0,0.0));
#86=DIRECTION('',(1.0,0.0,0.0));
#87=DIRECTION('',(0.0,1.0,0.0));
#88=AXIS2_PLACEMENT_3D('',#85,#86,#87);
#89=PLANE('',#88);
#90=CARTESIAN_POINT('',(-0.5,1.6,0.0));
#91=VERTEX_POINT('',#90);
#92=CARTESIAN_POINT('',(-0.5,0.0,0.0));
#93=DIRECTION('',(1.0,0.0,0.0));
#94=DIRECTION('',(0.0,1.0,0.0));
#95=AXIS2_PLACEMENT_3D('',#92,#93,#94);
#96=CIRCLE('',#95,1.6);
#97=EDGE_CURVE('',#91,#91,#96,.T.);
#98=ORIENTED_EDGE('',*,*,#97,.T.);
#99=EDGE_LOOP('',(#98));
#100=FACE_OUTER_BOUND('',#99,.T.);
#101=CARTESIAN_POINT('',(-0.5,-1.2295,-1.505654E-016));
#102=VERTEX_POINT('',#101);
#103=CARTESIAN_POINT('',(-0.5,0.0,0.0));
#104=DIRECTION('',(1.0,0.0,0.0));
#105=DIRECTION('',(0.0,1.0,0.0));
#106=AXIS2_PLACEMENT_3D('',#103,#104,#105);
#107=CIRCLE('',#106,1.2295);
#108=EDGE_CURVE('',#102,#102,#107,.T.);
#109=ORIENTED_EDGE('',*,*,#108,.F.);
#110=EDGE_LOOP('',(#109));
#111=FACE_BOUND('',#110,.T.);
#112=ADVANCED_FACE('',(#100,#111),#89,.T.);
#113=CARTESIAN_POINT('',(-0.25,0.0,0.0));
#114=DIRECTION('',(1.0,0.0,0.0));
#115=DIRECTION('',(0.0,1.0,0.0));
#116=AXIS2_PLACEMENT_3D('',#113,#114,#115);
#117=CYLINDRICAL_SURFACE('',#116,1.6);
#118=CARTESIAN_POINT('',(0.0,1.6,0.0));
#119=VERTEX_POINT('',#118);
#120=CARTESIAN_POINT('',(0.0,0.0,0.0));
#121=DIRECTION('',(-1.0,0.0,0.0));
#122=DIRECTION('',(0.0,1.0,0.0));
#123=AXIS2_PLACEMENT_3D('',#120,#121,#122);
#124=CIRCLE('',#123,1.6);
#125=EDGE_CURVE('',#119,#119,#124,.T.);
#126=ORIENTED_EDGE('',*,*,#125,.F.);
#127=EDGE_LOOP('',(#126));
#128=FACE_OUTER_BOUND('',#127,.T.);
#129=ORIENTED_EDGE('',*,*,#97,.F.);
#130=EDGE_LOOP('',(#129));
#131=FACE_BOUND('',#130,.T.);
#132=ADVANCED_FACE('',(#128,#131),#117,.F.);
#133=CARTESIAN_POINT('',(-2.5,0.0,0.0));
#134=DIRECTION('',(1.0,0.0,0.0));
#135=DIRECTION('',(0.0,1.0,0.0));
#136=AXIS2_PLACEMENT_3D('',#133,#134,#135);
#137=CYLINDRICAL_SURFACE('',#136,1.2295);
#138=ORIENTED_EDGE('',*,*,#108,.T.);
#139=EDGE_LOOP('',(#138));
#140=FACE_OUTER_BOUND('',#139,.T.);
#141=ORIENTED_EDGE('',*,*,#80,.F.);
#142=EDGE_LOOP('',(#141));
#143=FACE_BOUND('',#142,.T.);
#144=ADVANCED_FACE('',(#140,#143),#137,.F.);
#145=CARTESIAN_POINT('',(-11.0,1.25,-5.173796E-016));
#146=DIRECTION('',(0.0,1.0,0.0));
#147=DIRECTION('',(1.0,0.0,0.0));
#148=AXIS2_PLACEMENT_3D('',#145,#146,#147);
#149=CONICAL_SURFACE('',#148,2.116987298107781,14.999999999999961);
#150=CARTESIAN_POINT('',(-13.050000000000001,0.999999999999999,-1.128284E-015));
#151=VERTEX_POINT('',#150);
#152=CARTESIAN_POINT('',(-11.0,0.999999999999999,-5.173796E-016));
#153=DIRECTION('',(0.0,-1.0,0.0));
#154=DIRECTION('',(1.0,0.0,0.0));
#155=AXIS2_PLACEMENT_3D('',#152,#153,#154);
#156=CIRCLE('',#155,2.05);
#157=EDGE_CURVE('',#151,#151,#156,.T.);
#158=ORIENTED_EDGE('',*,*,#157,.T.);
#159=EDGE_LOOP('',(#158));
#160=FACE_OUTER_BOUND('',#159,.T.);
#161=CARTESIAN_POINT('',(-13.183974596215561,1.5,-6.333072E-016));
#162=VERTEX_POINT('',#161);
#163=CARTESIAN_POINT('',(-11.0,1.5,-5.173796E-016));
#164=DIRECTION('',(0.0,1.0,0.0));
#165=DIRECTION('',(1.0,0.0,0.0));
#166=AXIS2_PLACEMENT_3D('',#163,#164,#165);
#167=CIRCLE('',#166,2.183974596215561);
#168=EDGE_CURVE('',#162,#162,#167,.T.);
#169=ORIENTED_EDGE('',*,*,#168,.T.);
#170=EDGE_LOOP('',(#169));
#171=FACE_BOUND('',#170,.T.);
#172=ADVANCED_FACE('',(#160,#171),#149,.F.);
#173=CARTESIAN_POINT('',(-11.0,16.473723638006568,-5.173796E-016));
#174=DIRECTION('',(-5.162892E-032,-1.0,2.945919E-032));
#175=DIRECTION('',(1.0,0.0,0.0));
#176=AXIS2_PLACEMENT_3D('',#173,#174,#175);
#177=CYLINDRICAL_SURFACE('',#176,2.05);
#178=CARTESIAN_POINT('',(-8.950000000000001,-0.999999999999999,-4.085634E-016));
#179=VERTEX_POINT('',#178);
#180=CARTESIAN_POINT('',(-11.0,-0.999999999999999,-5.173796E-016));
#181=DIRECTION('',(0.0,1.0,0.0));
#182=DIRECTION('',(-1.0,0.0,0.0));
#183=AXIS2_PLACEMENT_3D('',#180,#181,#182);
#184=CIRCLE('',#183,2.05);
#185=EDGE_CURVE('',#179,#179,#184,.T.);
#186=ORIENTED_EDGE('',*,*,#185,.F.);
#187=EDGE_LOOP('',(#186));
#188=FACE_OUTER_BOUND('',#187,.T.);
#189=ORIENTED_EDGE('',*,*,#157,.F.);
#190=EDGE_LOOP('',(#189));
#191=FACE_BOUND('',#190,.T.);
#192=ADVANCED_FACE('',(#188,#191),#177,.F.);
#193=CARTESIAN_POINT('',(-11.071342939494059,1.5,-1.665335E-015));
#194=DIRECTION('',(0.0,1.0,0.0));
#195=DIRECTION('',(0.0,0.0,1.0));
#196=AXIS2_PLACEMENT_3D('',#193,#194,#195);
#197=PLANE('',#196);
#198=CARTESIAN_POINT('',(-11.5,1.5,-3.16227766016838));
#199=VERTEX_POINT('',#198);
#200=CARTESIAN_POINT('',(-6.125195925246231,1.5,-3.162277660168367));
#201=VERTEX_POINT('',#200);
#202=CARTESIAN_POINT('',(-11.5,1.5,-3.16227766016838));
#203=DIRECTION('',(1.0,0.0,0.0));
#204=VECTOR('',#203,5.374804074753769);
#205=LINE('',#202,#204);
#206=EDGE_CURVE('',#199,#201,#205,.T.);
#207=ORIENTED_EDGE('',*,*,#206,.F.);
#208=CARTESIAN_POINT('',(-11.5,1.5,3.16227766016838));
#209=VERTEX_POINT('',#208);
#210=CARTESIAN_POINT('',(-11.5,1.5,4.418878E-032));
#211=DIRECTION('',(0.0,-1.0,0.0));
#212=DIRECTION('',(0.0,0.0,1.0));
#213=AXIS2_PLACEMENT_3D('',#210,#211,#212);
#214=CIRCLE('',#213,3.16227766016838);
#215=EDGE_CURVE('',#209,#199,#214,.T.);
#216=ORIENTED_EDGE('',*,*,#215,.F.);
#217=CARTESIAN_POINT('',(-6.125195925246233,1.5,3.162277660168366));
#218=VERTEX_POINT('',#217);
#219=CARTESIAN_POINT('',(-6.125195925246233,1.5,3.16227766016838));
#220=DIRECTION('',(-1.0,0.0,0.0));
#221=VECTOR('',#220,5.374804074753767);
#222=LINE('',#219,#221);
#223=EDGE_CURVE('',#218,#209,#222,.T.);
#224=ORIENTED_EDGE('',*,*,#223,.F.);
#225=CARTESIAN_POINT('',(-46.000000000000007,1.5,0.0));
#226=DIRECTION('',(0.0,-1.0,0.0));
#227=DIRECTION('',(-0.99498743710662,0.0,-0.1));
#228=AXIS2_PLACEMENT_3D('',#225,#226,#227);
#229=CIRCLE('',#228,40.0);
#230=EDGE_CURVE('',#201,#218,#229,.T.);
#231=ORIENTED_EDGE('',*,*,#230,.F.);
#232=EDGE_LOOP('',(#207,#216,#224,#231));
#233=FACE_OUTER_BOUND('',#232,.T.);
#234=ORIENTED_EDGE('',*,*,#168,.F.);
#235=EDGE_LOOP('',(#234));
#236=FACE_BOUND('',#235,.T.);
#237=ADVANCED_FACE('',(#233,#236),#197,.T.);
#238=CARTESIAN_POINT('',(-11.0,-1.25,-5.173796E-016));
#239=DIRECTION('',(0.0,-1.0,0.0));
#240=DIRECTION('',(-1.0,0.0,0.0));
#241=AXIS2_PLACEMENT_3D('',#238,#239,#240);
#242=CONICAL_SURFACE('',#241,2.116987298107781,15.000000000000078);
#243=ORIENTED_EDGE('',*,*,#185,.T.);
#244=EDGE_LOOP('',(#243));
#245=FACE_OUTER_BOUND('',#244,.T.);
#246=CARTESIAN_POINT('',(-8.816025403784439,-1.5,1.334499E-016));
#247=VERTEX_POINT('',#246);
#248=CARTESIAN_POINT('',(-11.0,-1.5,-5.173796E-016));
#249=DIRECTION('',(0.0,-1.0,0.0));
#250=DIRECTION('',(-1.0,0.0,0.0));
#251=AXIS2_PLACEMENT_3D('',#248,#249,#250);
#252=CIRCLE('',#251,2.183974596215562);
#253=EDGE_CURVE('',#247,#247,#252,.T.);
#254=ORIENTED_EDGE('',*,*,#253,.T.);
#255=EDGE_LOOP('',(#254));
#256=FACE_BOUND('',#255,.T.);
#257=ADVANCED_FACE('',(#245,#256),#242,.F.);
#258=CARTESIAN_POINT('',(-11.071342939494059,-1.5,-1.665335E-015));
#259=DIRECTION('',(0.0,1.0,0.0));
#260=DIRECTION('',(0.0,0.0,1.0));
#261=AXIS2_PLACEMENT_3D('',#258,#259,#260);
#262=PLANE('',#261);
#263=CARTESIAN_POINT('',(-6.125195925246231,-1.5,-3.162277660168367));
#264=VERTEX_POINT('',#263);
#265=CARTESIAN_POINT('',(-11.5,-1.5,-3.16227766016838));
#266=VERTEX_POINT('',#265);
#267=CARTESIAN_POINT('',(-6.125195925246231,-1.5,-3.16227766016838));
#268=DIRECTION('',(-1.0,0.0,0.0));
#269=VECTOR('',#268,5.374804074753769);
#270=LINE('',#267,#269);
#271=EDGE_CURVE('',#264,#266,#270,.T.);
#272=ORIENTED_EDGE('',*,*,#271,.F.);
#273=CARTESIAN_POINT('',(-6.125195925246233,-1.5,3.162277660168366));
#274=VERTEX_POINT('',#273);
#275=CARTESIAN_POINT('',(-46.000000000000007,-1.5,0.0));
#276=DIRECTION('',(0.0,-1.0,0.0));
#277=DIRECTION('',(-0.99498743710662,0.0,-0.1));
#278=AXIS2_PLACEMENT_3D('',#275,#276,#277);
#279=CIRCLE('',#278,40.0);
#280=EDGE_CURVE('',#264,#274,#279,.T.);
#281=ORIENTED_EDGE('',*,*,#280,.T.);
#282=CARTESIAN_POINT('',(-11.5,-1.5,3.16227766016838));
#283=VERTEX_POINT('',#282);
#284=CARTESIAN_POINT('',(-11.5,-1.5,3.16227766016838));
#285=DIRECTION('',(1.0,0.0,0.0));
#286=VECTOR('',#285,5.374804074753767);
#287=LINE('',#284,#286);
#288=EDGE_CURVE('',#283,#274,#287,.T.);
#289=ORIENTED_EDGE('',*,*,#288,.F.);
#290=CARTESIAN_POINT('',(-11.5,-1.5,4.418878E-032));
#291=DIRECTION('',(0.0,1.0,0.0));
#292=DIRECTION('',(0.0,0.0,-1.0));
#293=AXIS2_PLACEMENT_3D('',#290,#291,#292);
#294=CIRCLE('',#293,3.16227766016838);
#295=EDGE_CURVE('',#266,#283,#294,.T.);
#296=ORIENTED_EDGE('',*,*,#295,.F.);
#297=EDGE_LOOP('',(#272,#281,#289,#296));
#298=FACE_OUTER_BOUND('',#297,.T.);
#299=ORIENTED_EDGE('',*,*,#253,.F.);
#300=EDGE_LOOP('',(#299));
#301=FACE_BOUND('',#300,.T.);
#302=ADVANCED_FACE('',(#298,#301),#262,.F.);
#303=CARTESIAN_POINT('',(-46.000000000000007,-1.5,0.0));
#304=DIRECTION('',(0.0,1.0,0.0));
#305=DIRECTION('',(-0.99498743710662,0.0,-0.1));
#306=AXIS2_PLACEMENT_3D('',#303,#304,#305);
#307=CYLINDRICAL_SURFACE('',#306,40.0);
#308=CARTESIAN_POINT('',(-6.125195925246234,-1.500000000000006,3.162277660168378));
#309=CARTESIAN_POINT('',(-6.111332977506267,-1.868521550019825,2.987472540430632));
#310=CARTESIAN_POINT('',(-6.093478561654223,-2.203176970981923,2.74657049732391));
#311=CARTESIAN_POINT('',(-6.057380220292944,-2.785496466802966,2.164251001502869));
#312=CARTESIAN_POINT('',(-6.036889179903854,-3.054820123006878,1.770834869933035));
#313=CARTESIAN_POINT('',(-6.007993581569512,-3.412078099985398,0.908573156751104));
#314=CARTESIAN_POINT('',(-6.000000000000005,-3.500000000000001,0.439708705611759));
#315=CARTESIAN_POINT('',(-6.000000000000005,-3.500000000000001,-0.439708705611758));
#316=CARTESIAN_POINT('',(-6.007993581569512,-3.412078099985398,-0.908573156751103));
#317=CARTESIAN_POINT('',(-6.036889179903854,-3.054820123006878,-1.770834869933033));
#318=CARTESIAN_POINT('',(-6.057380220292944,-2.785496466802967,-2.164251001502868));
#319=CARTESIAN_POINT('',(-6.093478561654223,-2.203176970981924,-2.746570497323911));
#320=CARTESIAN_POINT('',(-6.111332977506267,-1.868521550019824,-2.987472540430634));
#321=CARTESIAN_POINT('',(-6.125195925246234,-1.500000000000005,-3.162277660168379));
#322=B_SPLINE_CURVE_WITH_KNOTS('',3,(#308,#309,#310,#311,#312,#313,#314,#315,#316,#317,#318,#319,#320,#321),.UNSPECIFIED.,.F.,.U.,(4,2,2,2,2,2,4),(1.203745829430745,1.319127692535479,1.451040304219007,1.582952915902534,1.714865527586062,1.846778139269589,1.962160002374324),.UNSPECIFIED.);
#323=EDGE_CURVE('',#274,#264,#322,.T.);
#324=ORIENTED_EDGE('',*,*,#323,.F.);
#325=ORIENTED_EDGE('',*,*,#280,.F.);
#326=EDGE_LOOP('',(#324,#325));
#327=FACE_OUTER_BOUND('',#326,.T.);
#328=ADVANCED_FACE('',(#327),#307,.F.);
#329=CARTESIAN_POINT('',(-11.5,0.0,0.0));
#330=DIRECTION('',(1.0,0.0,0.0));
#331=DIRECTION('',(0.0,-1.0,0.0));
#332=AXIS2_PLACEMENT_3D('',#329,#330,#331);
#333=SPHERICAL_SURFACE('',#332,3.5);
#334=ORIENTED_EDGE('',*,*,#295,.T.);
#335=CARTESIAN_POINT('',(-11.5,0.0,0.0));
#336=DIRECTION('',(1.0,0.0,0.0));
#337=DIRECTION('',(0.0,1.0,0.0));
#338=AXIS2_PLACEMENT_3D('',#335,#336,#337);
#339=CIRCLE('',#338,3.5);
#340=EDGE_CURVE('',#209,#283,#339,.T.);
#341=ORIENTED_EDGE('',*,*,#340,.F.);
#342=ORIENTED_EDGE('',*,*,#215,.T.);
#343=CARTESIAN_POINT('',(-11.5,0.0,0.0));
#344=DIRECTION('',(1.0,0.0,0.0));
#345=DIRECTION('',(0.0,1.0,0.0));
#346=AXIS2_PLACEMENT_3D('',#343,#344,#345);
#347=CIRCLE('',#346,3.5);
#348=EDGE_CURVE('',#266,#199,#347,.T.);
#349=ORIENTED_EDGE('',*,*,#348,.F.);
#350=EDGE_LOOP('',(#334,#341,#342,#349));
#351=FACE_OUTER_BOUND('',#350,.T.);
#352=ADVANCED_FACE('',(#351),#333,.T.);
#353=CARTESIAN_POINT('',(-46.000000000000007,1.5,0.0));
#354=DIRECTION('',(0.0,1.0,0.0));
#355=DIRECTION('',(-0.99498743710662,0.0,-0.1));
#356=AXIS2_PLACEMENT_3D('',#353,#354,#355);
#357=CYLINDRICAL_SURFACE('',#356,40.0);
#358=CARTESIAN_POINT('',(-6.125195925246234,1.500000000000006,-3.162277660168378));
#359=CARTESIAN_POINT('',(-6.111332977506267,1.868521550019825,-2.987472540430633));
#360=CARTESIAN_POINT('',(-6.093478561654223,2.203176970981924,-2.746570497323911));
#361=CARTESIAN_POINT('',(-6.057380220292944,2.785496466802967,-2.164251001502868));
#362=CARTESIAN_POINT('',(-6.036889179903854,3.054820123006879,-1.770834869933033));
#363=CARTESIAN_POINT('',(-6.007993581569512,3.412078099985398,-0.908573156751102));
#364=CARTESIAN_POINT('',(-6.000000000000005,3.500000000000001,-0.439708705611758));
#365=CARTESIAN_POINT('',(-6.000000000000005,3.500000000000001,0.439708705611758));
#366=CARTESIAN_POINT('',(-6.007993581569512,3.412078099985398,0.908573156751101));
#367=CARTESIAN_POINT('',(-6.036889179903854,3.054820123006878,1.770834869933033));
#368=CARTESIAN_POINT('',(-6.057380220292944,2.785496466802967,2.164251001502868));
#369=CARTESIAN_POINT('',(-6.093478561654223,2.203176970981924,2.74657049732391));
#370=CARTESIAN_POINT('',(-6.111332977506267,1.868521550019826,2.987472540430632));
#371=CARTESIAN_POINT('',(-6.125195925246234,1.500000000000006,3.162277660168377));
#372=B_SPLINE_CURVE_WITH_KNOTS('',3,(#358,#359,#360,#361,#362,#363,#364,#365,#366,#367,#368,#369,#370,#371),.UNSPECIFIED.,.F.,.U.,(4,2,2,2,2,2,4),(0.148443885495722,0.263825748600457,0.395738360283984,0.527650971967512,0.659563583651039,0.791476195334566,0.906858058439301),.UNSPECIFIED.);
#373=EDGE_CURVE('',#201,#218,#372,.T.);
#374=ORIENTED_EDGE('',*,*,#373,.F.);
#375=ORIENTED_EDGE('',*,*,#230,.T.);
#376=EDGE_LOOP('',(#374,#375));
#377=FACE_OUTER_BOUND('',#376,.T.);
#378=ADVANCED_FACE('',(#377),#357,.F.);
#379=CARTESIAN_POINT('',(-6.0,0.0,0.0));
#380=DIRECTION('',(1.0,0.0,0.0));
#381=DIRECTION('',(0.0,1.0,0.0));
#382=AXIS2_PLACEMENT_3D('',#379,#380,#381);
#383=CYLINDRICAL_SURFACE('',#382,3.500000000000001);
#384=ORIENTED_EDGE('',*,*,#271,.T.);
#385=ORIENTED_EDGE('',*,*,#348,.T.);
#386=ORIENTED_EDGE('',*,*,#206,.T.);
#387=ORIENTED_EDGE('',*,*,#373,.T.);
#388=ORIENTED_EDGE('',*,*,#223,.T.);
#389=ORIENTED_EDGE('',*,*,#340,.T.);
#390=ORIENTED_EDGE('',*,*,#288,.T.);
#391=ORIENTED_EDGE('',*,*,#323,.T.);
#392=EDGE_LOOP('',(#384,#385,#386,#387,#388,#389,#390,#391));
#393=FACE_OUTER_BOUND('',#392,.T.);
#394=CARTESIAN_POINT('',(-0.5,3.500000000000003,0.0));
#395=VERTEX_POINT('',#394);
#396=CARTESIAN_POINT('',(-0.5,0.0,0.0));
#397=DIRECTION('',(1.0,0.0,0.0));
#398=DIRECTION('',(0.0,1.0,0.0));
#399=AXIS2_PLACEMENT_3D('',#396,#397,#398);
#400=CIRCLE('',#399,3.500000000000003);
#401=EDGE_CURVE('',#395,#395,#400,.T.);
#402=ORIENTED_EDGE('',*,*,#401,.F.);
#403=EDGE_LOOP('',(#402));
#404=FACE_BOUND('',#403,.T.);
#405=ADVANCED_FACE('',(#393,#404),#383,.T.);
#406=CARTESIAN_POINT('',(-0.25,0.0,0.0));
#407=DIRECTION('',(-1.0,0.0,0.0));
#408=DIRECTION('',(0.0,1.0,0.0));
#409=AXIS2_PLACEMENT_3D('',#406,#407,#408);
#410=CONICAL_SURFACE('',#409,3.250000000000003,44.999999999999993);
#411=CARTESIAN_POINT('',(0.0,3.000000000000003,0.0));
#412=VERTEX_POINT('',#411);
#413=CARTESIAN_POINT('',(0.0,0.0,0.0));
#414=DIRECTION('',(1.0,0.0,0.0));
#415=DIRECTION('',(0.0,1.0,0.0));
#416=AXIS2_PLACEMENT_3D('',#413,#414,#415);
#417=CIRCLE('',#416,3.000000000000003);
#418=EDGE_CURVE('',#412,#412,#417,.T.);
#419=ORIENTED_EDGE('',*,*,#418,.F.);
#420=EDGE_LOOP('',(#419));
#421=FACE_OUTER_BOUND('',#420,.T.);
#422=ORIENTED_EDGE('',*,*,#401,.T.);
#423=EDGE_LOOP('',(#422));
#424=FACE_BOUND('',#423,.T.);
#425=ADVANCED_FACE('',(#421,#424),#410,.T.);
#426=CARTESIAN_POINT('',(0.0,1.500000000000001,0.0));
#427=DIRECTION('',(1.0,0.0,0.0));
#428=DIRECTION('',(0.0,0.0,-1.0));
#429=AXIS2_PLACEMENT_3D('',#426,#427,#428);
#430=PLANE('',#429);
#431=ORIENTED_EDGE('',*,*,#418,.T.);
#432=EDGE_LOOP('',(#431));
#433=FACE_OUTER_BOUND('',#432,.T.);
#434=ORIENTED_EDGE('',*,*,#125,.T.);
#435=EDGE_LOOP('',(#434));
#436=FACE_BOUND('',#435,.T.);
#437=ADVANCED_FACE('',(#433,#436),#430,.T.);
#438=CLOSED_SHELL('',(#84,#112,#132,#144,#172,#192,#237,#257,#302,#328,#352,#378,#405,#425,#437));
#439=MANIFOLD_SOLID_BREP('Volumenk\S\vrper1',#438);
#440=COLOUR_RGB('Aluminium (glnzend)',0.949019610881805,0.921568632125854,0.929411768913269);
#441=FILL_AREA_STYLE_COLOUR('Aluminium (glnzend)',#440);
#442=FILL_AREA_STYLE('Aluminium (glnzend)',(#441));
#443=SURFACE_STYLE_FILL_AREA(#442);
#444=SURFACE_SIDE_STYLE('Aluminium (glnzend)',(#443));
#445=SURFACE_STYLE_USAGE(.BOTH.,#444);
#446=PRESENTATION_STYLE_ASSIGNMENT((#445));
#447=STYLED_ITEM('',(#446),#439);
#448=MECHANICAL_DESIGN_GEOMETRIC_PRESENTATION_REPRESENTATION('',(#447),#36);
#449=ADVANCED_BREP_SHAPE_REPRESENTATION('ABSR',(#439),#36);
#450=SHAPE_REPRESENTATION_RELATIONSHIP('SRR','None',#449,#41);
ENDSEC;
END-ISO-10303-21;
