ISO-10303-21;
HEADER;
/****************************************************************
 * Generated by software with PDElib inside                    *
 * PDElib Version v51a, created Wed 07/06/2011                  *
 * ITI Transcendata (http://www.transcendata.com/)              *
 ****************************************************************/
FILE_DESCRIPTION((''),'2;1');
FILE_NAME('C:\\eigene Dateien\\Step-Dateien\\Jochen Maier-Quick Ship\\0412-XX1SXXUM4.stp','2012-07-16T09:31:04',('CADNEU'),(''),'Autodesk Inventor 2012','Autodesk Inventor 2012','');
FILE_SCHEMA(('AUTOMOTIVE_DESIGN { 1 0 10303 214 1 1 1 1 }'));
ENDSEC;
DATA;
#5=APPLICATION_CONTEXT('automotive design');
#6=APPLICATION_PROTOCOL_DEFINITION('International Standard','automotive_design',2001,#5);
#7=PRODUCT_CONTEXT('',#5,'mechanical');
#8=PRODUCT('XX1SXXUM4','XX1SXXUM4',$,(#7));
#9=PRODUCT_RELATED_PRODUCT_CATEGORY('part',$,(#8));
#10=PRODUCT_DEFINITION_FORMATION('',$,#8);
#11=PRODUCT_DEFINITION_CONTEXT('part definition',#5,'design');
#12=PRODUCT_DEFINITION('',$,#10,#11);
#18=(NAMED_UNIT(*)PLANE_ANGLE_UNIT()SI_UNIT($,.RADIAN.));
#19=DIMENSIONAL_EXPONENTS(0.0,0.0,0.0,0.0,0.0,0.0,0.0);
#20=PLANE_ANGLE_MEASURE_WITH_UNIT(PLANE_ANGLE_MEASURE(0.0174532925),#18);
#24=(CONVERSION_BASED_UNIT('DEGREE',#20)NAMED_UNIT(#19)PLANE_ANGLE_UNIT());
#28=(NAMED_UNIT(*)SI_UNIT($,.STERADIAN.)SOLID_ANGLE_UNIT());
#32=(LENGTH_UNIT()NAMED_UNIT(*)SI_UNIT(.MILLI.,.METRE.));
#34=UNCERTAINTY_MEASURE_WITH_UNIT(LENGTH_MEASURE(0.01),#32,'DISTANCE_ACCURACY_VALUE','');
#36=(GEOMETRIC_REPRESENTATION_CONTEXT(3)GLOBAL_UNCERTAINTY_ASSIGNED_CONTEXT((#34))GLOBAL_UNIT_ASSIGNED_CONTEXT((#24,#28,#32))REPRESENTATION_CONTEXT('None','None'));
#37=AXIS2_PLACEMENT_3D('',#38,#39,#40);
#38=CARTESIAN_POINT('',(0.0,0.0,0.0));
#39=DIRECTION('',(0.0,0.0,1.0));
#40=DIRECTION('',(1.0,0.0,0.0));
#41=SHAPE_REPRESENTATION('',(#37),#36);
#42=PRODUCT_DEFINITION_SHAPE('','',#12);
#43=SHAPE_DEFINITION_REPRESENTATION(#42,#41);
#49=(NAMED_UNIT(*)PLANE_ANGLE_UNIT()SI_UNIT($,.RADIAN.));
#50=DIMENSIONAL_EXPONENTS(0.0,0.0,0.0,0.0,0.0,0.0,0.0);
#51=PLANE_ANGLE_MEASURE_WITH_UNIT(PLANE_ANGLE_MEASURE(0.0174532925),#49);
#55=(CONVERSION_BASED_UNIT('DEGREE',#51)NAMED_UNIT(#50)PLANE_ANGLE_UNIT());
#59=(NAMED_UNIT(*)SI_UNIT($,.STERADIAN.)SOLID_ANGLE_UNIT());
#63=(LENGTH_UNIT()NAMED_UNIT(*)SI_UNIT(.MILLI.,.METRE.));
#65=UNCERTAINTY_MEASURE_WITH_UNIT(LENGTH_MEASURE(0.000001),#63,'DISTANCE_ACCURACY_VALUE','');
#67=(GEOMETRIC_REPRESENTATION_CONTEXT(3)GLOBAL_UNCERTAINTY_ASSIGNED_CONTEXT((#65))GLOBAL_UNIT_ASSIGNED_CONTEXT((#55,#59,#63))REPRESENTATION_CONTEXT('','3D'));
#68=CARTESIAN_POINT('',(-32.328487539941378,26.178205230283918,-1.476597E-013));
#69=DIRECTION('',(0.707106781186547,0.707106781186548,-2.762321E-016));
#70=DIRECTION('',(-0.696205379455501,0.696205379455501,-0.17491752123342));
#71=AXIS2_PLACEMENT_3D('',#68,#69,#70);
#72=CYLINDRICAL_SURFACE('',#71,40.0);
#73=CARTESIAN_POINT('',(-4.150681555803832,-2.0,3.464101615137756));
#74=VERTEX_POINT('',#73);
#75=CARTESIAN_POINT('',(-4.150385793508984,-1.999896516148481,3.464161357445569));
#76=VERTEX_POINT('',#75);
#77=CARTESIAN_POINT('',(-4.150681555803832,-2.0,3.464101615137756));
#78=CARTESIAN_POINT('',(-4.150617469777576,-1.999931017800428,3.464141442029249));
#79=CARTESIAN_POINT('',(-4.150553365455428,-1.999862016179231,3.464181277385487));
#80=CARTESIAN_POINT('',(-4.150489277360504,-1.99979303229697,3.464221099753377));
#81=B_SPLINE_CURVE_WITH_KNOTS('',3,(#77,#78,#79,#80),.UNSPECIFIED.,.F.,.U.,(4,4),(1.167783305008193,1.167812262659297),.UNSPECIFIED.);
#82=EDGE_CURVE('',#74,#76,#81,.T.);
#83=ORIENTED_EDGE('',*,*,#82,.F.);
#84=CARTESIAN_POINT('',(-4.150282309657446,-2.000000000000002,3.460852496134139));
#85=VERTEX_POINT('',#84);
#86=CARTESIAN_POINT('',(-60.506692770225293,-2.000000000000002,-1.366518E-013));
#87=DIRECTION('',(0.0,-1.0,0.0));
#88=DIRECTION('',(-1.0,0.0,0.0));
#89=AXIS2_PLACEMENT_3D('',#86,#87,#88);
#90=ELLIPSE('',#89,56.56854249492379,40.0);
#91=EDGE_CURVE('',#85,#74,#90,.T.);
#92=ORIENTED_EDGE('',*,*,#91,.F.);
#93=CARTESIAN_POINT('',(-32.328487539941378,26.178205230283918,-1.476597E-013));
#94=DIRECTION('',(-0.707106781186547,-0.707106781186548,2.636780E-016));
#95=DIRECTION('',(-0.696205379455501,0.696205379455501,-0.17491752123342));
#96=AXIS2_PLACEMENT_3D('',#93,#94,#95);
#97=CIRCLE('',#96,40.0);
#98=EDGE_CURVE('',#85,#76,#97,.T.);
#99=ORIENTED_EDGE('',*,*,#98,.T.);
#100=EDGE_LOOP('',(#83,#92,#99));
#101=FACE_OUTER_BOUND('',#100,.T.);
#102=ADVANCED_FACE('',(#101),#72,.T.);
#103=CARTESIAN_POINT('',(-32.328487539941378,26.178205230283918,-1.476597E-013));
#104=DIRECTION('',(0.707106781186547,0.707106781186548,-2.762321E-016));
#105=DIRECTION('',(-0.696205379455501,0.696205379455501,-0.17491752123342));
#106=AXIS2_PLACEMENT_3D('',#103,#104,#105);
#107=CYLINDRICAL_SURFACE('',#106,40.0);
#108=CARTESIAN_POINT('',(-4.150385793508978,-1.999896516148494,-3.464161357445562));
#109=VERTEX_POINT('',#108);
#110=CARTESIAN_POINT('',(-4.150681555803796,-2.0,-3.464101615137756));
#111=VERTEX_POINT('',#110);
#112=CARTESIAN_POINT('',(-4.150489277360488,-1.999793032296997,-3.464221099753362));
#113=CARTESIAN_POINT('',(-4.150553365451812,-1.999862016175383,-3.464181277387709));
#114=CARTESIAN_POINT('',(-4.150617469781087,-1.999931017804245,-3.464141442027044));
#115=CARTESIAN_POINT('',(-4.150681555803796,-2.0,-3.464101615137756));
#116=B_SPLINE_CURVE_WITH_KNOTS('',3,(#112,#113,#114,#115),.UNSPECIFIED.,.F.,.U.,(4,4),(0.270451193562167,0.270480151213268),.UNSPECIFIED.);
#117=EDGE_CURVE('',#109,#111,#116,.T.);
#118=ORIENTED_EDGE('',*,*,#117,.F.);
#119=CARTESIAN_POINT('',(-4.150282309657448,-2.000000000000002,-3.460852496134456));
#120=VERTEX_POINT('',#119);
#121=CARTESIAN_POINT('',(-4.150282309657457,-2.0,-3.460852496134457));
#122=DIRECTION('',(0.0,0.0,-1.0));
#123=VECTOR('',#122,0.003249119003324);
#124=LINE('',#121,#123);
#125=EDGE_CURVE('',#120,#109,#124,.T.);
#126=ORIENTED_EDGE('',*,*,#125,.F.);
#127=CARTESIAN_POINT('',(-60.506692770225293,-2.000000000000002,-1.366518E-013));
#128=DIRECTION('',(0.0,-1.0,0.0));
#129=DIRECTION('',(-1.0,0.0,0.0));
#130=AXIS2_PLACEMENT_3D('',#127,#128,#129);
#131=ELLIPSE('',#130,56.56854249492379,40.0);
#132=EDGE_CURVE('',#111,#120,#131,.T.);
#133=ORIENTED_EDGE('',*,*,#132,.F.);
#134=EDGE_LOOP('',(#118,#126,#133));
#135=FACE_OUTER_BOUND('',#134,.T.);
#136=ADVANCED_FACE('',(#135),#107,.T.);
#137=CARTESIAN_POINT('',(-1.735840822338244,-4.414441487319208,-0.0024546412517));
#138=DIRECTION('',(0.707106781186547,0.707106781186548,-3.088765E-016));
#139=DIRECTION('',(0.0,0.0,1.0));
#140=AXIS2_PLACEMENT_3D('',#137,#138,#139);
#141=PLANE('',#140);
#142=CARTESIAN_POINT('',(-44.0,37.849717690342487,0.0));
#143=DIRECTION('',(-0.707106781186547,-0.707106781186548,3.088765E-016));
#144=DIRECTION('',(0.707106781186548,-0.707106781186547,-3.336446E-016));
#145=AXIS2_PLACEMENT_3D('',#142,#143,#144);
#146=ELLIPSE('',#145,56.568542494923761,40.000000000000007);
#147=EDGE_CURVE('',#109,#76,#146,.T.);
#148=ORIENTED_EDGE('',*,*,#147,.F.);
#149=CARTESIAN_POINT('',(-6.150282309657459,0.0,0.0));
#150=DIRECTION('',(0.707106781186547,0.707106781186548,-3.088765E-016));
#151=DIRECTION('',(-0.707106781186548,0.707106781186547,0.0));
#152=AXIS2_PLACEMENT_3D('',#149,#150,#151);
#153=ELLIPSE('',#152,5.656854249492386,4.000000000000002);
#154=EDGE_CURVE('',#76,#109,#153,.T.);
#155=ORIENTED_EDGE('',*,*,#154,.F.);
#156=EDGE_LOOP('',(#148,#155));
#157=FACE_OUTER_BOUND('',#156,.T.);
#158=ADVANCED_FACE('',(#157),#141,.F.);
#159=CARTESIAN_POINT('',(-6.000000000000001,0.0,0.0));
#160=DIRECTION('',(1.0,0.0,0.0));
#161=DIRECTION('',(0.0,1.0,0.0));
#162=AXIS2_PLACEMENT_3D('',#159,#160,#161);
#163=CYLINDRICAL_SURFACE('',#162,4.000000000000002);
#164=CARTESIAN_POINT('',(0.0,4.000000000000003,0.0));
#165=VERTEX_POINT('',#164);
#166=CARTESIAN_POINT('',(0.0,0.0,0.0));
#167=DIRECTION('',(1.0,0.0,0.0));
#168=DIRECTION('',(0.0,1.0,0.0));
#169=AXIS2_PLACEMENT_3D('',#166,#167,#168);
#170=CIRCLE('',#169,4.000000000000003);
#171=EDGE_CURVE('',#165,#165,#170,.T.);
#172=ORIENTED_EDGE('',*,*,#171,.F.);
#173=EDGE_LOOP('',(#172));
#174=FACE_OUTER_BOUND('',#173,.T.);
#175=CARTESIAN_POINT('',(-4.150385793508978,1.999896516148493,-3.464161357445562));
#176=VERTEX_POINT('',#175);
#177=CARTESIAN_POINT('',(-4.150385793508974,1.99989651614848,3.464161357445567));
#178=VERTEX_POINT('',#177);
#179=CARTESIAN_POINT('',(-6.150282309657459,0.0,0.0));
#180=DIRECTION('',(0.707106781186547,-0.707106781186548,-3.088765E-016));
#181=DIRECTION('',(0.707106781186548,0.707106781186547,0.0));
#182=AXIS2_PLACEMENT_3D('',#179,#180,#181);
#183=ELLIPSE('',#182,5.656854249492386,4.000000000000002);
#184=EDGE_CURVE('',#176,#178,#183,.T.);
#185=ORIENTED_EDGE('',*,*,#184,.T.);
#186=CARTESIAN_POINT('',(-4.150681555803832,2.0,3.464101615137756));
#187=VERTEX_POINT('',#186);
#188=CARTESIAN_POINT('',(-4.150489277360504,1.99979303229697,3.464221099753377));
#189=CARTESIAN_POINT('',(-4.150553365451835,1.999862016175364,3.464181277387719));
#190=CARTESIAN_POINT('',(-4.150617469781115,1.999931017804237,3.464141442027049));
#191=CARTESIAN_POINT('',(-4.150681555803832,2.0,3.464101615137756));
#192=B_SPLINE_CURVE_WITH_KNOTS('',3,(#188,#189,#190,#191),.UNSPECIFIED.,.F.,.U.,(4,4),(1.768196565340065,1.768225522991168),.UNSPECIFIED.);
#193=EDGE_CURVE('',#178,#187,#192,.T.);
#194=ORIENTED_EDGE('',*,*,#193,.T.);
#195=CARTESIAN_POINT('',(-12.000000000000002,2.0,3.464101615137755));
#196=VERTEX_POINT('',#195);
#197=CARTESIAN_POINT('',(-4.150681555803832,2.0,3.464101615137756));
#198=DIRECTION('',(-1.0,0.0,0.0));
#199=VECTOR('',#198,7.84931844419617);
#200=LINE('',#197,#199);
#201=EDGE_CURVE('',#187,#196,#200,.T.);
#202=ORIENTED_EDGE('',*,*,#201,.T.);
#203=CARTESIAN_POINT('',(-12.000000000000002,-2.0,3.464101615137755));
#204=VERTEX_POINT('',#203);
#205=CARTESIAN_POINT('',(-12.000000000000002,0.0,0.0));
#206=DIRECTION('',(1.0,0.0,0.0));
#207=DIRECTION('',(0.0,1.0,0.0));
#208=AXIS2_PLACEMENT_3D('',#205,#206,#207);
#209=CIRCLE('',#208,4.0);
#210=EDGE_CURVE('',#196,#204,#209,.T.);
#211=ORIENTED_EDGE('',*,*,#210,.T.);
#212=CARTESIAN_POINT('',(-12.000000000000002,-2.0,3.464101615137756));
#213=DIRECTION('',(1.0,0.0,0.0));
#214=VECTOR('',#213,7.84931844419617);
#215=LINE('',#212,#214);
#216=EDGE_CURVE('',#204,#74,#215,.T.);
#217=ORIENTED_EDGE('',*,*,#216,.T.);
#218=ORIENTED_EDGE('',*,*,#82,.T.);
#219=ORIENTED_EDGE('',*,*,#154,.T.);
#220=ORIENTED_EDGE('',*,*,#117,.T.);
#221=CARTESIAN_POINT('',(-12.000000000000002,-2.0,-3.464101615137755));
#222=VERTEX_POINT('',#221);
#223=CARTESIAN_POINT('',(-4.150681555803796,-2.0,-3.464101615137756));
#224=DIRECTION('',(-1.0,0.0,0.0));
#225=VECTOR('',#224,7.849318444196205);
#226=LINE('',#223,#225);
#227=EDGE_CURVE('',#111,#222,#226,.T.);
#228=ORIENTED_EDGE('',*,*,#227,.T.);
#229=CARTESIAN_POINT('',(-12.000000000000002,2.0,-3.464101615137755));
#230=VERTEX_POINT('',#229);
#231=CARTESIAN_POINT('',(-12.000000000000002,0.0,0.0));
#232=DIRECTION('',(1.0,0.0,0.0));
#233=DIRECTION('',(0.0,1.0,0.0));
#234=AXIS2_PLACEMENT_3D('',#231,#232,#233);
#235=CIRCLE('',#234,4.0);
#236=EDGE_CURVE('',#222,#230,#235,.T.);
#237=ORIENTED_EDGE('',*,*,#236,.T.);
#238=CARTESIAN_POINT('',(-4.150681555803796,2.0,-3.464101615137756));
#239=VERTEX_POINT('',#238);
#240=CARTESIAN_POINT('',(-12.000000000000002,2.0,-3.464101615137756));
#241=DIRECTION('',(1.0,0.0,0.0));
#242=VECTOR('',#241,7.849318444196205);
#243=LINE('',#240,#242);
#244=EDGE_CURVE('',#230,#239,#243,.T.);
#245=ORIENTED_EDGE('',*,*,#244,.T.);
#246=CARTESIAN_POINT('',(-4.150681555803796,2.0,-3.464101615137756));
#247=CARTESIAN_POINT('',(-4.150617469777549,1.999931017800437,-3.464141442029243));
#248=CARTESIAN_POINT('',(-4.150553365455403,1.999862016179249,-3.464181277385477));
#249=CARTESIAN_POINT('',(-4.150489277360488,1.999793032296997,-3.464221099753362));
#250=B_SPLINE_CURVE_WITH_KNOTS('',3,(#246,#247,#248,#249),.UNSPECIFIED.,.F.,.U.,(4,4),(2.665528676786094,2.665557634437194),.UNSPECIFIED.);
#251=EDGE_CURVE('',#239,#176,#250,.T.);
#252=ORIENTED_EDGE('',*,*,#251,.T.);
#253=EDGE_LOOP('',(#185,#194,#202,#211,#217,#218,#219,#220,#228,#237,#245,#252));
#254=FACE_BOUND('',#253,.T.);
#255=ADVANCED_FACE('',(#174,#254),#163,.T.);
#256=CARTESIAN_POINT('',(-32.328487539941378,-26.178205230283918,-1.476597E-013));
#257=DIRECTION('',(-0.707106781186547,0.707106781186548,2.762321E-016));
#258=DIRECTION('',(-0.696205379455501,-0.696205379455501,-0.17491752123342));
#259=AXIS2_PLACEMENT_3D('',#256,#257,#258);
#260=CYLINDRICAL_SURFACE('',#259,40.0);
#261=ORIENTED_EDGE('',*,*,#193,.F.);
#262=CARTESIAN_POINT('',(-4.150282309657446,2.000000000000002,3.460852496134139));
#263=VERTEX_POINT('',#262);
#264=CARTESIAN_POINT('',(-4.150282309657454,2.0,3.460852496134139));
#265=DIRECTION('',(0.0,0.0,1.0));
#266=VECTOR('',#265,0.003249119003638);
#267=LINE('',#264,#266);
#268=EDGE_CURVE('',#263,#178,#267,.T.);
#269=ORIENTED_EDGE('',*,*,#268,.F.);
#270=CARTESIAN_POINT('',(-60.506692770225293,2.000000000000002,-1.366518E-013));
#271=DIRECTION('',(0.0,1.0,0.0));
#272=DIRECTION('',(-1.0,0.0,0.0));
#273=AXIS2_PLACEMENT_3D('',#270,#271,#272);
#274=ELLIPSE('',#273,56.56854249492379,40.0);
#275=EDGE_CURVE('',#187,#263,#274,.T.);
#276=ORIENTED_EDGE('',*,*,#275,.F.);
#277=EDGE_LOOP('',(#261,#269,#276));
#278=FACE_OUTER_BOUND('',#277,.T.);
#279=ADVANCED_FACE('',(#278),#260,.T.);
#280=CARTESIAN_POINT('',(-32.328487539941378,-26.178205230283918,-1.476597E-013));
#281=DIRECTION('',(-0.707106781186547,0.707106781186548,2.762321E-016));
#282=DIRECTION('',(-0.696205379455501,-0.696205379455501,-0.17491752123342));
#283=AXIS2_PLACEMENT_3D('',#280,#281,#282);
#284=CYLINDRICAL_SURFACE('',#283,40.0);
#285=ORIENTED_EDGE('',*,*,#251,.F.);
#286=CARTESIAN_POINT('',(-4.150282309657448,2.000000000000002,-3.460852496134456));
#287=VERTEX_POINT('',#286);
#288=CARTESIAN_POINT('',(-60.506692770225293,2.000000000000002,-1.366518E-013));
#289=DIRECTION('',(0.0,1.0,0.0));
#290=DIRECTION('',(-1.0,0.0,0.0));
#291=AXIS2_PLACEMENT_3D('',#288,#289,#290);
#292=ELLIPSE('',#291,56.56854249492379,40.0);
#293=EDGE_CURVE('',#287,#239,#292,.T.);
#294=ORIENTED_EDGE('',*,*,#293,.F.);
#295=CARTESIAN_POINT('',(-32.328487539941378,-26.178205230283918,-1.476597E-013));
#296=DIRECTION('',(0.707106781186547,-0.707106781186548,-2.636780E-016));
#297=DIRECTION('',(-0.696205379455501,-0.696205379455501,-0.17491752123342));
#298=AXIS2_PLACEMENT_3D('',#295,#296,#297);
#299=CIRCLE('',#298,40.0);
#300=EDGE_CURVE('',#176,#287,#299,.T.);
#301=ORIENTED_EDGE('',*,*,#300,.F.);
#302=EDGE_LOOP('',(#285,#294,#301));
#303=FACE_OUTER_BOUND('',#302,.T.);
#304=ADVANCED_FACE('',(#303),#284,.T.);
#305=CARTESIAN_POINT('',(-1.735840822338244,4.414441487319208,-0.0024546412517));
#306=DIRECTION('',(-0.707106781186547,0.707106781186548,3.088765E-016));
#307=DIRECTION('',(0.0,0.0,1.0));
#308=AXIS2_PLACEMENT_3D('',#305,#306,#307);
#309=PLANE('',#308);
#310=CARTESIAN_POINT('',(-44.0,-37.849717690342487,0.0));
#311=DIRECTION('',(-0.707106781186547,0.707106781186548,3.088765E-016));
#312=DIRECTION('',(0.707106781186548,0.707106781186547,-3.336446E-016));
#313=AXIS2_PLACEMENT_3D('',#310,#311,#312);
#314=ELLIPSE('',#313,56.568542494923761,40.000000000000007);
#315=EDGE_CURVE('',#178,#176,#314,.T.);
#316=ORIENTED_EDGE('',*,*,#315,.F.);
#317=ORIENTED_EDGE('',*,*,#184,.F.);
#318=EDGE_LOOP('',(#316,#317));
#319=FACE_OUTER_BOUND('',#318,.T.);
#320=ADVANCED_FACE('',(#319),#309,.T.);
#321=CARTESIAN_POINT('',(-8.986997531721839,0.0,0.0));
#322=DIRECTION('',(1.0,0.0,0.0));
#323=DIRECTION('',(0.0,1.0,0.0));
#324=AXIS2_PLACEMENT_3D('',#321,#322,#323);
#325=CONICAL_SURFACE('',#324,0.8105,59.000000000000007);
#326=CARTESIAN_POINT('',(-8.5,1.621,0.0));
#327=VERTEX_POINT('',#326);
#328=CARTESIAN_POINT('',(-8.5,0.0,0.0));
#329=DIRECTION('',(1.0,0.0,0.0));
#330=DIRECTION('',(0.0,1.0,0.0));
#331=AXIS2_PLACEMENT_3D('',#328,#329,#330);
#332=CIRCLE('',#331,1.621);
#333=EDGE_CURVE('',#327,#327,#332,.T.);
#334=ORIENTED_EDGE('',*,*,#333,.T.);
#335=EDGE_LOOP('',(#334));
#336=FACE_OUTER_BOUND('',#335,.T.);
#337=ADVANCED_FACE('',(#336),#325,.F.);
#338=CARTESIAN_POINT('',(-0.479778073696579,0.0,0.0));
#339=DIRECTION('',(1.0,0.0,0.0));
#340=DIRECTION('',(0.0,1.0,0.0));
#341=AXIS2_PLACEMENT_3D('',#338,#339,#340);
#342=CONICAL_SURFACE('',#341,1.898,29.999999999999996);
#343=CARTESIAN_POINT('',(0.0,2.175,0.0));
#344=VERTEX_POINT('',#343);
#345=CARTESIAN_POINT('',(0.0,0.0,0.0));
#346=DIRECTION('',(-1.0,0.0,0.0));
#347=DIRECTION('',(0.0,1.0,0.0));
#348=AXIS2_PLACEMENT_3D('',#345,#346,#347);
#349=CIRCLE('',#348,2.175);
#350=EDGE_CURVE('',#344,#344,#349,.T.);
#351=ORIENTED_EDGE('',*,*,#350,.F.);
#352=EDGE_LOOP('',(#351));
#353=FACE_OUTER_BOUND('',#352,.T.);
#354=CARTESIAN_POINT('',(-0.959556147393158,1.621,0.0));
#355=VERTEX_POINT('',#354);
#356=CARTESIAN_POINT('',(-0.959556147393158,0.0,0.0));
#357=DIRECTION('',(1.0,0.0,0.0));
#358=DIRECTION('',(0.0,1.0,0.0));
#359=AXIS2_PLACEMENT_3D('',#356,#357,#358);
#360=CIRCLE('',#359,1.621);
#361=EDGE_CURVE('',#355,#355,#360,.T.);
#362=ORIENTED_EDGE('',*,*,#361,.F.);
#363=EDGE_LOOP('',(#362));
#364=FACE_BOUND('',#363,.T.);
#365=ADVANCED_FACE('',(#353,#364),#342,.F.);
#366=CARTESIAN_POINT('',(-4.25,0.0,0.0));
#367=DIRECTION('',(1.0,0.0,0.0));
#368=DIRECTION('',(0.0,1.0,0.0));
#369=AXIS2_PLACEMENT_3D('',#366,#367,#368);
#370=CYLINDRICAL_SURFACE('',#369,1.621);
#371=ORIENTED_EDGE('',*,*,#361,.T.);
#372=EDGE_LOOP('',(#371));
#373=FACE_OUTER_BOUND('',#372,.T.);
#374=ORIENTED_EDGE('',*,*,#333,.F.);
#375=EDGE_LOOP('',(#374));
#376=FACE_BOUND('',#375,.T.);
#377=ADVANCED_FACE('',(#373,#376),#370,.F.);
#378=CARTESIAN_POINT('',(-12.000000000000007,1.749999999999999,-6.072980E-016));
#379=DIRECTION('',(0.0,1.0,0.0));
#380=DIRECTION('',(1.0,0.0,0.0));
#381=AXIS2_PLACEMENT_3D('',#378,#379,#380);
#382=CONICAL_SURFACE('',#381,2.116987298107781,14.999999999999986);
#383=CARTESIAN_POINT('',(-14.050000000000008,1.499999999999999,-3.707696E-017));
#384=VERTEX_POINT('',#383);
#385=CARTESIAN_POINT('',(-12.000000000000007,1.499999999999999,-6.072980E-016));
#386=DIRECTION('',(0.0,-1.0,0.0));
#387=DIRECTION('',(1.0,0.0,0.0));
#388=AXIS2_PLACEMENT_3D('',#385,#386,#387);
#389=CIRCLE('',#388,2.05);
#390=EDGE_CURVE('',#384,#384,#389,.T.);
#391=ORIENTED_EDGE('',*,*,#390,.T.);
#392=EDGE_LOOP('',(#391));
#393=FACE_OUTER_BOUND('',#392,.T.);
#394=CARTESIAN_POINT('',(-14.183974596215567,2.0,5.350908E-016));
#395=VERTEX_POINT('',#394);
#396=CARTESIAN_POINT('',(-12.000000000000007,2.0,-6.072980E-016));
#397=DIRECTION('',(0.0,1.0,0.0));
#398=DIRECTION('',(1.0,0.0,0.0));
#399=AXIS2_PLACEMENT_3D('',#396,#397,#398);
#400=CIRCLE('',#399,2.183974596215561);
#401=EDGE_CURVE('',#395,#395,#400,.T.);
#402=ORIENTED_EDGE('',*,*,#401,.T.);
#403=EDGE_LOOP('',(#402));
#404=FACE_BOUND('',#403,.T.);
#405=ADVANCED_FACE('',(#393,#404),#382,.F.);
#406=CARTESIAN_POINT('',(-12.000000000000007,17.597634185837734,-6.072980E-016));
#407=DIRECTION('',(6.454007E-032,-1.0,-9.372034E-032));
#408=DIRECTION('',(1.0,0.0,0.0));
#409=AXIS2_PLACEMENT_3D('',#406,#407,#408);
#410=CYLINDRICAL_SURFACE('',#409,2.05);
#411=CARTESIAN_POINT('',(-9.950000000000006,-1.499999999999999,-1.679608E-015));
#412=VERTEX_POINT('',#411);
#413=CARTESIAN_POINT('',(-12.000000000000007,-1.499999999999999,-6.072980E-016));
#414=DIRECTION('',(0.0,1.0,0.0));
#415=DIRECTION('',(-1.0,0.0,0.0));
#416=AXIS2_PLACEMENT_3D('',#413,#414,#415);
#417=CIRCLE('',#416,2.05);
#418=EDGE_CURVE('',#412,#412,#417,.T.);
#419=ORIENTED_EDGE('',*,*,#418,.F.);
#420=EDGE_LOOP('',(#419));
#421=FACE_OUTER_BOUND('',#420,.T.);
#422=ORIENTED_EDGE('',*,*,#390,.F.);
#423=EDGE_LOOP('',(#422));
#424=FACE_BOUND('',#423,.T.);
#425=ADVANCED_FACE('',(#421,#424),#410,.F.);
#426=CARTESIAN_POINT('',(-11.069121046506837,2.0,2.479587502051434));
#427=DIRECTION('',(0.0,1.0,0.0));
#428=DIRECTION('',(0.0,0.0,1.0));
#429=AXIS2_PLACEMENT_3D('',#426,#427,#428);
#430=PLANE('',#429);
#431=ORIENTED_EDGE('',*,*,#293,.T.);
#432=ORIENTED_EDGE('',*,*,#244,.F.);
#433=CARTESIAN_POINT('',(-12.000000000000002,2.0,-1.874407E-031));
#434=DIRECTION('',(0.0,-1.0,0.0));
#435=DIRECTION('',(0.0,0.0,1.0));
#436=AXIS2_PLACEMENT_3D('',#433,#434,#435);
#437=CIRCLE('',#436,3.464101615137755);
#438=EDGE_CURVE('',#196,#230,#437,.T.);
#439=ORIENTED_EDGE('',*,*,#438,.F.);
#440=ORIENTED_EDGE('',*,*,#201,.F.);
#441=ORIENTED_EDGE('',*,*,#275,.T.);
#442=ORIENTED_EDGE('',*,*,#268,.T.);
#443=CARTESIAN_POINT('',(-44.0,2.0,0.0));
#444=DIRECTION('',(0.0,1.0,0.0));
#445=DIRECTION('',(0.992156741649221,0.0,0.125));
#446=AXIS2_PLACEMENT_3D('',#443,#444,#445);
#447=CIRCLE('',#446,39.999999999999993);
#448=EDGE_CURVE('',#178,#176,#447,.T.);
#449=ORIENTED_EDGE('',*,*,#448,.T.);
#450=ORIENTED_EDGE('',*,*,#300,.T.);
#451=EDGE_LOOP('',(#431,#432,#439,#440,#441,#442,#449,#450));
#452=FACE_OUTER_BOUND('',#451,.T.);
#453=ORIENTED_EDGE('',*,*,#401,.F.);
#454=EDGE_LOOP('',(#453));
#455=FACE_BOUND('',#454,.T.);
#456=ADVANCED_FACE('',(#452,#455),#430,.T.);
#457=CARTESIAN_POINT('',(-12.000000000000007,-1.749999999999999,-6.072980E-016));
#458=DIRECTION('',(0.0,-1.0,0.0));
#459=DIRECTION('',(-1.0,0.0,0.0));
#460=AXIS2_PLACEMENT_3D('',#457,#458,#459);
#461=CONICAL_SURFACE('',#460,2.11698729810778,14.999999999999869);
#462=ORIENTED_EDGE('',*,*,#418,.T.);
#463=EDGE_LOOP('',(#462));
#464=FACE_OUTER_BOUND('',#463,.T.);
#465=CARTESIAN_POINT('',(-9.816025403784446,-2.0,-1.214785E-015));
#466=VERTEX_POINT('',#465);
#467=CARTESIAN_POINT('',(-12.000000000000007,-2.0,-6.072980E-016));
#468=DIRECTION('',(0.0,-1.0,0.0));
#469=DIRECTION('',(-1.0,0.0,0.0));
#470=AXIS2_PLACEMENT_3D('',#467,#468,#469);
#471=CIRCLE('',#470,2.18397459621556);
#472=EDGE_CURVE('',#466,#466,#471,.T.);
#473=ORIENTED_EDGE('',*,*,#472,.T.);
#474=EDGE_LOOP('',(#473));
#475=FACE_BOUND('',#474,.T.);
#476=ADVANCED_FACE('',(#464,#475),#461,.F.);
#477=CARTESIAN_POINT('',(-11.069121046506837,-2.0,2.479587502051434));
#478=DIRECTION('',(0.0,1.0,0.0));
#479=DIRECTION('',(0.0,0.0,1.0));
#480=AXIS2_PLACEMENT_3D('',#477,#478,#479);
#481=PLANE('',#480);
#482=ORIENTED_EDGE('',*,*,#91,.T.);
#483=ORIENTED_EDGE('',*,*,#216,.F.);
#484=CARTESIAN_POINT('',(-12.000000000000002,-2.0,-1.874407E-031));
#485=DIRECTION('',(0.0,1.0,0.0));
#486=DIRECTION('',(0.0,0.0,-1.0));
#487=AXIS2_PLACEMENT_3D('',#484,#485,#486);
#488=CIRCLE('',#487,3.464101615137755);
#489=EDGE_CURVE('',#222,#204,#488,.T.);
#490=ORIENTED_EDGE('',*,*,#489,.F.);
#491=ORIENTED_EDGE('',*,*,#227,.F.);
#492=ORIENTED_EDGE('',*,*,#132,.T.);
#493=ORIENTED_EDGE('',*,*,#125,.T.);
#494=CARTESIAN_POINT('',(-44.0,-2.0,0.0));
#495=DIRECTION('',(0.0,1.0,0.0));
#496=DIRECTION('',(0.992156741649221,0.0,0.125));
#497=AXIS2_PLACEMENT_3D('',#494,#495,#496);
#498=CIRCLE('',#497,39.999999999999993);
#499=EDGE_CURVE('',#76,#109,#498,.T.);
#500=ORIENTED_EDGE('',*,*,#499,.F.);
#501=ORIENTED_EDGE('',*,*,#98,.F.);
#502=EDGE_LOOP('',(#482,#483,#490,#491,#492,#493,#500,#501));
#503=FACE_OUTER_BOUND('',#502,.T.);
#504=ORIENTED_EDGE('',*,*,#472,.F.);
#505=EDGE_LOOP('',(#504));
#506=FACE_BOUND('',#505,.T.);
#507=ADVANCED_FACE('',(#503,#506),#481,.F.);
#508=CARTESIAN_POINT('',(-44.0,-2.0,0.0));
#509=DIRECTION('',(0.0,1.0,0.0));
#510=DIRECTION('',(0.992156741649221,0.0,0.125));
#511=AXIS2_PLACEMENT_3D('',#508,#509,#510);
#512=CYLINDRICAL_SURFACE('',#511,40.0);
#513=ORIENTED_EDGE('',*,*,#147,.T.);
#514=ORIENTED_EDGE('',*,*,#499,.T.);
#515=EDGE_LOOP('',(#513,#514));
#516=FACE_OUTER_BOUND('',#515,.T.);
#517=ADVANCED_FACE('',(#516),#512,.F.);
#518=CARTESIAN_POINT('',(-12.000000000000002,0.0,0.0));
#519=DIRECTION('',(1.0,0.0,0.0));
#520=DIRECTION('',(0.0,-1.0,0.0));
#521=AXIS2_PLACEMENT_3D('',#518,#519,#520);
#522=SPHERICAL_SURFACE('',#521,4.0);
#523=ORIENTED_EDGE('',*,*,#489,.T.);
#524=ORIENTED_EDGE('',*,*,#210,.F.);
#525=ORIENTED_EDGE('',*,*,#438,.T.);
#526=ORIENTED_EDGE('',*,*,#236,.F.);
#527=EDGE_LOOP('',(#523,#524,#525,#526));
#528=FACE_OUTER_BOUND('',#527,.T.);
#529=ADVANCED_FACE('',(#528),#522,.T.);
#530=CARTESIAN_POINT('',(-44.0,2.0,0.0));
#531=DIRECTION('',(0.0,1.0,0.0));
#532=DIRECTION('',(0.992156741649221,0.0,0.125));
#533=AXIS2_PLACEMENT_3D('',#530,#531,#532);
#534=CYLINDRICAL_SURFACE('',#533,40.0);
#535=ORIENTED_EDGE('',*,*,#315,.T.);
#536=ORIENTED_EDGE('',*,*,#448,.F.);
#537=EDGE_LOOP('',(#535,#536));
#538=FACE_OUTER_BOUND('',#537,.T.);
#539=ADVANCED_FACE('',(#538),#534,.F.);
#540=CARTESIAN_POINT('',(0.0,2.000000000000001,0.0));
#541=DIRECTION('',(1.0,0.0,0.0));
#542=DIRECTION('',(0.0,0.0,-1.0));
#543=AXIS2_PLACEMENT_3D('',#540,#541,#542);
#544=PLANE('',#543);
#545=ORIENTED_EDGE('',*,*,#171,.T.);
#546=EDGE_LOOP('',(#545));
#547=FACE_OUTER_BOUND('',#546,.T.);
#548=ORIENTED_EDGE('',*,*,#350,.T.);
#549=EDGE_LOOP('',(#548));
#550=FACE_BOUND('',#549,.T.);
#551=ADVANCED_FACE('',(#547,#550),#544,.T.);
#552=CLOSED_SHELL('',(#102,#136,#158,#255,#279,#304,#320,#337,#365,#377,#405,#425,#456,#476,#507,#517,#529,#539,#551));
#553=MANIFOLD_SOLID_BREP('Volumenk\S\vrper1',#552);
#554=COLOUR_RGB('Zink',0.674509823322296,0.764705896377563,0.811764717102051);
#555=FILL_AREA_STYLE_COLOUR('Zink',#554);
#556=FILL_AREA_STYLE('Zink',(#555));
#557=SURFACE_STYLE_FILL_AREA(#556);
#558=SURFACE_SIDE_STYLE('Zink',(#557));
#559=SURFACE_STYLE_USAGE(.BOTH.,#558);
#560=PRESENTATION_STYLE_ASSIGNMENT((#559));
#561=STYLED_ITEM('',(#560),#553);
#562=MECHANICAL_DESIGN_GEOMETRIC_PRESENTATION_REPRESENTATION('',(#561),#36);
#563=ADVANCED_BREP_SHAPE_REPRESENTATION('ABSR',(#553),#36);
#564=SHAPE_REPRESENTATION_RELATIONSHIP('SRR','None',#563,#41);
ENDSEC;
END-ISO-10303-21;
