ISO-10303-21;
HEADER;
/* Generated by software containing ST-Developer
 * from STEP Tools, Inc. (www.steptools.com) 
 */

FILE_DESCRIPTION(
/* description */ (''),
/* implementation_level */ '2;1');

FILE_NAME(
/* name */ 
'X:\\CAD-sonstige Dateien\\Dateien-3D\\3D-Stepdateien\\Kolbenstangen-G
elenkauge\\XX2SXXUM5.stp',
/* time_stamp */ '2015-10-27T13:04:52+01:00',
/* author */ ('cadneu2'),
/* organization */ (''),
/* preprocessor_version */ 'ST-DEVELOPER v15.2',
/* originating_system */ 'Autodesk Inventor 2014',
/* authorisation */ '');

FILE_SCHEMA (('AUTOMOTIVE_DESIGN { 1 0 10303 214 3 1 1 }'));
ENDSEC;

DATA;
#10=MECHANICAL_DESIGN_GEOMETRIC_PRESENTATION_REPRESENTATION('',(#13),#373);
#11=SHAPE_REPRESENTATION_RELATIONSHIP('SRR','None',#382,#12);
#12=ADVANCED_BREP_SHAPE_REPRESENTATION($,(#196),#372);
#13=STYLED_ITEM('',(#391),#196);
#14=SPHERICAL_SURFACE('',#225,5.);
#15=PLANE('',#204);
#16=PLANE('',#216);
#17=PLANE('',#221);
#18=B_SPLINE_CURVE_WITH_KNOTS('',3,(#306,#307,#308,#309,#310,#311,#312,
#313,#314,#315,#316,#317,#318,#319),.UNSPECIFIED.,.F.,.F.,(4,2,2,2,2,2,
4),(0.307517752293952,0.377112057855293,0.565666511569688,0.754220965284082,
0.942775418998476,1.13132987271287,1.20092417827421),.UNSPECIFIED.);
#19=B_SPLINE_CURVE_WITH_KNOTS('',3,(#326,#327,#328,#329,#330,#331,#332,
#333,#334,#335,#336,#337,#338,#339),.UNSPECIFIED.,.F.,.F.,(4,2,2,2,2,2,
4),(1.81595968286212,1.88555398842346,2.07410844213785,2.26266289585225,
2.45121734956664,2.63977180328103,2.70936610884237),.UNSPECIFIED.);
#20=LINE('',#300,#24);
#21=LINE('',#304,#25);
#22=LINE('',#321,#26);
#23=LINE('',#325,#27);
#24=VECTOR('',#237,9.7994974842648);
#25=VECTOR('',#240,9.7994974842648);
#26=VECTOR('',#241,9.7994974842648);
#27=VECTOR('',#244,9.7994974842648);
#28=CYLINDRICAL_SURFACE('',#201,5.);
#29=CYLINDRICAL_SURFACE('',#210,2.067);
#30=CYLINDRICAL_SURFACE('',#214,3.05);
#31=CYLINDRICAL_SURFACE('',#224,40.);
#32=CYLINDRICAL_SURFACE('',#226,40.);
#33=FACE_BOUND('',#58,.T.);
#34=FACE_BOUND('',#60,.T.);
#35=FACE_BOUND('',#61,.T.);
#36=FACE_BOUND('',#62,.T.);
#37=FACE_BOUND('',#65,.T.);
#38=FACE_BOUND('',#67,.T.);
#39=FACE_BOUND('',#69,.T.);
#40=FACE_BOUND('',#71,.T.);
#41=FACE_BOUND('',#73,.T.);
#42=FACE_BOUND('',#75,.T.);
#43=FACE_BOUND('',#77,.T.);
#44=FACE_OUTER_BOUND('',#57,.T.);
#45=FACE_OUTER_BOUND('',#59,.T.);
#46=FACE_OUTER_BOUND('',#63,.T.);
#47=FACE_OUTER_BOUND('',#64,.T.);
#48=FACE_OUTER_BOUND('',#66,.T.);
#49=FACE_OUTER_BOUND('',#68,.T.);
#50=FACE_OUTER_BOUND('',#70,.T.);
#51=FACE_OUTER_BOUND('',#72,.T.);
#52=FACE_OUTER_BOUND('',#74,.T.);
#53=FACE_OUTER_BOUND('',#76,.T.);
#54=FACE_OUTER_BOUND('',#78,.T.);
#55=FACE_OUTER_BOUND('',#79,.T.);
#56=FACE_OUTER_BOUND('',#80,.T.);
#57=EDGE_LOOP('',(#134));
#58=EDGE_LOOP('',(#135));
#59=EDGE_LOOP('',(#136,#137,#138,#139,#140,#141,#142,#143));
#60=EDGE_LOOP('',(#144));
#61=EDGE_LOOP('',(#145));
#62=EDGE_LOOP('',(#146));
#63=EDGE_LOOP('',(#147));
#64=EDGE_LOOP('',(#148));
#65=EDGE_LOOP('',(#149));
#66=EDGE_LOOP('',(#150));
#67=EDGE_LOOP('',(#151));
#68=EDGE_LOOP('',(#152));
#69=EDGE_LOOP('',(#153));
#70=EDGE_LOOP('',(#154));
#71=EDGE_LOOP('',(#155));
#72=EDGE_LOOP('',(#156,#157,#158,#159));
#73=EDGE_LOOP('',(#160));
#74=EDGE_LOOP('',(#161));
#75=EDGE_LOOP('',(#162));
#76=EDGE_LOOP('',(#163,#164,#165,#166));
#77=EDGE_LOOP('',(#167));
#78=EDGE_LOOP('',(#168,#169));
#79=EDGE_LOOP('',(#170,#171,#172,#173));
#80=EDGE_LOOP('',(#174,#175));
#81=CIRCLE('',#199,5.);
#82=CIRCLE('',#200,4.5);
#83=CIRCLE('',#202,5.);
#84=CIRCLE('',#203,5.);
#85=CIRCLE('',#205,2.675);
#86=CIRCLE('',#207,2.067);
#87=CIRCLE('',#209,2.067);
#88=CIRCLE('',#212,3.05);
#89=CIRCLE('',#213,3.33867513459481);
#90=CIRCLE('',#215,3.05);
#91=CIRCLE('',#217,40.);
#92=CIRCLE('',#218,4.);
#93=CIRCLE('',#220,3.33867513459481);
#94=CIRCLE('',#222,4.);
#95=CIRCLE('',#223,40.);
#96=VERTEX_POINT('',#293);
#97=VERTEX_POINT('',#295);
#98=VERTEX_POINT('',#298);
#99=VERTEX_POINT('',#299);
#100=VERTEX_POINT('',#301);
#101=VERTEX_POINT('',#303);
#102=VERTEX_POINT('',#305);
#103=VERTEX_POINT('',#320);
#104=VERTEX_POINT('',#322);
#105=VERTEX_POINT('',#324);
#106=VERTEX_POINT('',#341);
#107=VERTEX_POINT('',#344);
#108=VERTEX_POINT('',#347);
#109=VERTEX_POINT('',#351);
#110=VERTEX_POINT('',#353);
#111=VERTEX_POINT('',#356);
#112=VERTEX_POINT('',#362);
#113=EDGE_CURVE('',#96,#96,#81,.T.);
#114=EDGE_CURVE('',#97,#97,#82,.T.);
#115=EDGE_CURVE('',#98,#99,#20,.T.);
#116=EDGE_CURVE('',#99,#100,#83,.T.);
#117=EDGE_CURVE('',#100,#101,#21,.T.);
#118=EDGE_CURVE('',#101,#102,#18,.T.);
#119=EDGE_CURVE('',#102,#103,#22,.T.);
#120=EDGE_CURVE('',#103,#104,#84,.T.);
#121=EDGE_CURVE('',#104,#105,#23,.T.);
#122=EDGE_CURVE('',#105,#98,#19,.T.);
#123=EDGE_CURVE('',#106,#106,#85,.T.);
#124=EDGE_CURVE('',#107,#107,#86,.T.);
#125=EDGE_CURVE('',#108,#108,#87,.T.);
#126=EDGE_CURVE('',#109,#109,#88,.T.);
#127=EDGE_CURVE('',#110,#110,#89,.T.);
#128=EDGE_CURVE('',#111,#111,#90,.T.);
#129=EDGE_CURVE('',#98,#105,#91,.T.);
#130=EDGE_CURVE('',#99,#104,#92,.T.);
#131=EDGE_CURVE('',#112,#112,#93,.T.);
#132=EDGE_CURVE('',#103,#100,#94,.T.);
#133=EDGE_CURVE('',#101,#102,#95,.T.);
#134=ORIENTED_EDGE('',*,*,#113,.T.);
#135=ORIENTED_EDGE('',*,*,#114,.T.);
#136=ORIENTED_EDGE('',*,*,#115,.T.);
#137=ORIENTED_EDGE('',*,*,#116,.T.);
#138=ORIENTED_EDGE('',*,*,#117,.T.);
#139=ORIENTED_EDGE('',*,*,#118,.T.);
#140=ORIENTED_EDGE('',*,*,#119,.T.);
#141=ORIENTED_EDGE('',*,*,#120,.T.);
#142=ORIENTED_EDGE('',*,*,#121,.T.);
#143=ORIENTED_EDGE('',*,*,#122,.T.);
#144=ORIENTED_EDGE('',*,*,#113,.F.);
#145=ORIENTED_EDGE('',*,*,#123,.T.);
#146=ORIENTED_EDGE('',*,*,#114,.F.);
#147=ORIENTED_EDGE('',*,*,#124,.T.);
#148=ORIENTED_EDGE('',*,*,#123,.F.);
#149=ORIENTED_EDGE('',*,*,#125,.F.);
#150=ORIENTED_EDGE('',*,*,#125,.T.);
#151=ORIENTED_EDGE('',*,*,#124,.F.);
#152=ORIENTED_EDGE('',*,*,#126,.T.);
#153=ORIENTED_EDGE('',*,*,#127,.T.);
#154=ORIENTED_EDGE('',*,*,#128,.F.);
#155=ORIENTED_EDGE('',*,*,#126,.F.);
#156=ORIENTED_EDGE('',*,*,#115,.F.);
#157=ORIENTED_EDGE('',*,*,#129,.T.);
#158=ORIENTED_EDGE('',*,*,#121,.F.);
#159=ORIENTED_EDGE('',*,*,#130,.F.);
#160=ORIENTED_EDGE('',*,*,#127,.F.);
#161=ORIENTED_EDGE('',*,*,#128,.T.);
#162=ORIENTED_EDGE('',*,*,#131,.T.);
#163=ORIENTED_EDGE('',*,*,#117,.F.);
#164=ORIENTED_EDGE('',*,*,#132,.F.);
#165=ORIENTED_EDGE('',*,*,#119,.F.);
#166=ORIENTED_EDGE('',*,*,#133,.F.);
#167=ORIENTED_EDGE('',*,*,#131,.F.);
#168=ORIENTED_EDGE('',*,*,#122,.F.);
#169=ORIENTED_EDGE('',*,*,#129,.F.);
#170=ORIENTED_EDGE('',*,*,#130,.T.);
#171=ORIENTED_EDGE('',*,*,#120,.F.);
#172=ORIENTED_EDGE('',*,*,#132,.T.);
#173=ORIENTED_EDGE('',*,*,#116,.F.);
#174=ORIENTED_EDGE('',*,*,#118,.F.);
#175=ORIENTED_EDGE('',*,*,#133,.T.);
#176=CONICAL_SURFACE('',#198,4.75,44.9999999999999);
#177=CONICAL_SURFACE('',#206,1.0335,59.);
#178=CONICAL_SURFACE('',#208,2.371,30.);
#179=CONICAL_SURFACE('',#211,3.19433756729741,30.0000000000001);
#180=CONICAL_SURFACE('',#219,3.19433756729741,30.);
#181=ADVANCED_FACE('',(#44,#33),#176,.T.);
#182=ADVANCED_FACE('',(#45,#34),#28,.T.);
#183=ADVANCED_FACE('',(#35,#36),#15,.T.);
#184=ADVANCED_FACE('',(#46),#177,.F.);
#185=ADVANCED_FACE('',(#47,#37),#178,.F.);
#186=ADVANCED_FACE('',(#48,#38),#29,.F.);
#187=ADVANCED_FACE('',(#49,#39),#179,.F.);
#188=ADVANCED_FACE('',(#50,#40),#30,.F.);
#189=ADVANCED_FACE('',(#51,#41),#16,.F.);
#190=ADVANCED_FACE('',(#52,#42),#180,.F.);
#191=ADVANCED_FACE('',(#53,#43),#17,.T.);
#192=ADVANCED_FACE('',(#54),#31,.F.);
#193=ADVANCED_FACE('',(#55),#14,.T.);
#194=ADVANCED_FACE('',(#56),#32,.F.);
#195=CLOSED_SHELL('',(#181,#182,#183,#184,#185,#186,#187,#188,#189,#190,
#191,#192,#193,#194));
#196=MANIFOLD_SOLID_BREP('Volumenk\X\F6rper1',#195);
#197=AXIS2_PLACEMENT_3D('placement',#291,#227,#228);
#198=AXIS2_PLACEMENT_3D('',#292,#229,#230);
#199=AXIS2_PLACEMENT_3D('',#294,#231,#232);
#200=AXIS2_PLACEMENT_3D('',#296,#233,#234);
#201=AXIS2_PLACEMENT_3D('',#297,#235,#236);
#202=AXIS2_PLACEMENT_3D('',#302,#238,#239);
#203=AXIS2_PLACEMENT_3D('',#323,#242,#243);
#204=AXIS2_PLACEMENT_3D('',#340,#245,#246);
#205=AXIS2_PLACEMENT_3D('',#342,#247,#248);
#206=AXIS2_PLACEMENT_3D('',#343,#249,#250);
#207=AXIS2_PLACEMENT_3D('',#345,#251,#252);
#208=AXIS2_PLACEMENT_3D('',#346,#253,#254);
#209=AXIS2_PLACEMENT_3D('',#348,#255,#256);
#210=AXIS2_PLACEMENT_3D('',#349,#257,#258);
#211=AXIS2_PLACEMENT_3D('',#350,#259,#260);
#212=AXIS2_PLACEMENT_3D('',#352,#261,#262);
#213=AXIS2_PLACEMENT_3D('',#354,#263,#264);
#214=AXIS2_PLACEMENT_3D('',#355,#265,#266);
#215=AXIS2_PLACEMENT_3D('',#357,#267,#268);
#216=AXIS2_PLACEMENT_3D('',#358,#269,#270);
#217=AXIS2_PLACEMENT_3D('',#359,#271,#272);
#218=AXIS2_PLACEMENT_3D('',#360,#273,#274);
#219=AXIS2_PLACEMENT_3D('',#361,#275,#276);
#220=AXIS2_PLACEMENT_3D('',#363,#277,#278);
#221=AXIS2_PLACEMENT_3D('',#364,#279,#280);
#222=AXIS2_PLACEMENT_3D('',#365,#281,#282);
#223=AXIS2_PLACEMENT_3D('',#366,#283,#284);
#224=AXIS2_PLACEMENT_3D('',#367,#285,#286);
#225=AXIS2_PLACEMENT_3D('',#368,#287,#288);
#226=AXIS2_PLACEMENT_3D('',#369,#289,#290);
#227=DIRECTION('axis',(0.,0.,1.));
#228=DIRECTION('refdir',(1.,0.,0.));
#229=DIRECTION('center_axis',(-1.,0.,0.));
#230=DIRECTION('ref_axis',(0.,-1.,0.));
#231=DIRECTION('center_axis',(1.,0.,0.));
#232=DIRECTION('ref_axis',(0.,-1.,0.));
#233=DIRECTION('center_axis',(-1.,0.,0.));
#234=DIRECTION('ref_axis',(0.,-1.,0.));
#235=DIRECTION('center_axis',(1.,0.,0.));
#236=DIRECTION('ref_axis',(0.,1.,0.));
#237=DIRECTION('',(-1.,0.,0.));
#238=DIRECTION('center_axis',(1.,0.,0.));
#239=DIRECTION('ref_axis',(0.,1.,0.));
#240=DIRECTION('',(1.,0.,0.));
#241=DIRECTION('',(-1.,0.,0.));
#242=DIRECTION('center_axis',(1.,0.,0.));
#243=DIRECTION('ref_axis',(0.,1.,0.));
#244=DIRECTION('',(1.,0.,0.));
#245=DIRECTION('center_axis',(1.,0.,0.));
#246=DIRECTION('ref_axis',(0.,0.,-1.));
#247=DIRECTION('center_axis',(-1.,0.,0.));
#248=DIRECTION('ref_axis',(0.,1.,0.));
#249=DIRECTION('center_axis',(1.,0.,0.));
#250=DIRECTION('ref_axis',(0.,1.,0.));
#251=DIRECTION('center_axis',(1.,0.,0.));
#252=DIRECTION('ref_axis',(0.,1.,0.));
#253=DIRECTION('center_axis',(1.,0.,0.));
#254=DIRECTION('ref_axis',(0.,1.,0.));
#255=DIRECTION('center_axis',(1.,0.,0.));
#256=DIRECTION('ref_axis',(0.,1.,0.));
#257=DIRECTION('center_axis',(1.,0.,0.));
#258=DIRECTION('ref_axis',(0.,1.,0.));
#259=DIRECTION('center_axis',(0.,-1.,0.));
#260=DIRECTION('ref_axis',(-1.,6.52327973719073E-032,4.16333634234434E-016));
#261=DIRECTION('center_axis',(6.52327973719073E-032,1.,-1.915661418284E-032));
#262=DIRECTION('ref_axis',(-1.,6.52327973719074E-032,4.16333634234434E-016));
#263=DIRECTION('center_axis',(-6.52327973719073E-032,-1.,1.915661418284E-032));
#264=DIRECTION('ref_axis',(-1.,6.52327973719073E-032,4.16333634234434E-016));
#265=DIRECTION('center_axis',(-6.52327973719073E-032,-1.,2.46519032881566E-032));
#266=DIRECTION('ref_axis',(1.,-6.52327973719074E-032,-4.16333634234434E-016));
#267=DIRECTION('center_axis',(6.52327973719073E-032,-1.,-1.915661418284E-032));
#268=DIRECTION('ref_axis',(1.,-6.52327973719074E-032,-4.16333634234434E-016));
#269=DIRECTION('center_axis',(6.52327973719073E-032,1.,-1.915661418284E-032));
#270=DIRECTION('ref_axis',(0.,0.,1.));
#271=DIRECTION('center_axis',(0.,-1.,0.));
#272=DIRECTION('ref_axis',(-0.988685996664259,0.,-0.15));
#273=DIRECTION('center_axis',(6.52327973719073E-032,1.,-1.915661418284E-032));
#274=DIRECTION('ref_axis',(0.,-1.915661418284E-032,-1.));
#275=DIRECTION('center_axis',(0.,1.,0.));
#276=DIRECTION('ref_axis',(1.,2.94757303581782E-033,-4.16333634234434E-016));
#277=DIRECTION('center_axis',(-6.52327973719073E-032,1.,1.915661418284E-032));
#278=DIRECTION('ref_axis',(1.,6.52327973719073E-032,-4.16333634234434E-016));
#279=DIRECTION('center_axis',(-6.52327973719073E-032,1.,1.915661418284E-032));
#280=DIRECTION('ref_axis',(0.,0.,1.));
#281=DIRECTION('center_axis',(6.52327973719073E-032,-1.,-1.915661418284E-032));
#282=DIRECTION('ref_axis',(0.,-1.915661418284E-032,1.));
#283=DIRECTION('center_axis',(0.,-1.,0.));
#284=DIRECTION('ref_axis',(-0.988685996664259,0.,-0.15));
#285=DIRECTION('center_axis',(0.,1.,0.));
#286=DIRECTION('ref_axis',(-0.988685996664259,0.,-0.15));
#287=DIRECTION('center_axis',(1.,-6.12323399573676E-017,0.));
#288=DIRECTION('ref_axis',(0.,-1.,0.));
#289=DIRECTION('center_axis',(0.,1.,0.));
#290=DIRECTION('ref_axis',(-0.988685996664259,0.,-0.15));
#291=CARTESIAN_POINT('',(0.,0.,0.));
#292=CARTESIAN_POINT('Origin',(-0.25,0.,0.));
#293=CARTESIAN_POINT('',(-0.5,5.,6.12323399573677E-016));
#294=CARTESIAN_POINT('Origin',(-0.5,0.,0.));
#295=CARTESIAN_POINT('',(0.,4.5,-5.51091059616309E-016));
#296=CARTESIAN_POINT('Origin',(0.,0.,0.));
#297=CARTESIAN_POINT('Origin',(-8.,0.,0.));
#298=CARTESIAN_POINT('',(-6.20050251573521,-3.,-4.));
#299=CARTESIAN_POINT('',(-16.,-3.,-4.));
#300=CARTESIAN_POINT('',(-8.,-3.,-4.));
#301=CARTESIAN_POINT('',(-16.,3.,-4.));
#302=CARTESIAN_POINT('Origin',(-16.,0.,0.));
#303=CARTESIAN_POINT('',(-6.20050251573521,3.,-4.));
#304=CARTESIAN_POINT('',(-8.,3.,-4.));
#305=CARTESIAN_POINT('',(-6.2005025157352,3.,3.99999999999999));
#306=CARTESIAN_POINT('Ctrl Pts',(-6.2005025157352,3.,-4.));
#307=CARTESIAN_POINT('Ctrl Pts',(-6.18599167757507,3.19250802228296,-3.85561898328778));
#308=CARTESIAN_POINT('Ctrl Pts',(-6.17108358861484,3.37182050851298,-3.69924730335249));
#309=CARTESIAN_POINT('Ctrl Pts',(-6.11719724735752,3.9790887336909,-3.09197907817458));
#310=CARTESIAN_POINT('Ctrl Pts',(-6.07534187507073,4.36378293632982,-2.53018150396575));
#311=CARTESIAN_POINT('Ctrl Pts',(-6.01632704564581,4.87425667585949,-1.29847676279312));
#312=CARTESIAN_POINT('Ctrl Pts',(-6.00000000000001,5.,-0.628514845714647));
#313=CARTESIAN_POINT('Ctrl Pts',(-6.00000000000001,5.,0.628514845714647));
#314=CARTESIAN_POINT('Ctrl Pts',(-6.01632704564581,4.87425667585949,1.29847676279312));
#315=CARTESIAN_POINT('Ctrl Pts',(-6.07534187507073,4.36378293632982,2.53018150396575));
#316=CARTESIAN_POINT('Ctrl Pts',(-6.11719724735752,3.9790887336909,3.09197907817458));
#317=CARTESIAN_POINT('Ctrl Pts',(-6.17108358861484,3.37182050851298,3.69924730335249));
#318=CARTESIAN_POINT('Ctrl Pts',(-6.18599167757507,3.19250802228296,3.85561898328778));
#319=CARTESIAN_POINT('Ctrl Pts',(-6.2005025157352,3.,4.));
#320=CARTESIAN_POINT('',(-16.,3.,4.));
#321=CARTESIAN_POINT('',(-8.,3.,4.));
#322=CARTESIAN_POINT('',(-16.,-3.,4.));
#323=CARTESIAN_POINT('Origin',(-16.,0.,0.));
#324=CARTESIAN_POINT('',(-6.2005025157352,-3.,3.99999999999999));
#325=CARTESIAN_POINT('',(-8.,-3.,4.));
#326=CARTESIAN_POINT('Ctrl Pts',(-6.2005025157352,-3.,4.));
#327=CARTESIAN_POINT('Ctrl Pts',(-6.18599167757507,-3.19250802228296,3.85561898328778));
#328=CARTESIAN_POINT('Ctrl Pts',(-6.17108358861484,-3.37182050851298,3.69924730335249));
#329=CARTESIAN_POINT('Ctrl Pts',(-6.11719724735752,-3.9790887336909,3.09197907817458));
#330=CARTESIAN_POINT('Ctrl Pts',(-6.07534187507073,-4.36378293632982,2.53018150396576));
#331=CARTESIAN_POINT('Ctrl Pts',(-6.01632704564581,-4.87425667585949,1.29847676279312));
#332=CARTESIAN_POINT('Ctrl Pts',(-6.00000000000001,-5.,0.628514845714648));
#333=CARTESIAN_POINT('Ctrl Pts',(-6.00000000000001,-5.,-0.628514845714647));
#334=CARTESIAN_POINT('Ctrl Pts',(-6.01632704564581,-4.87425667585949,-1.29847676279312));
#335=CARTESIAN_POINT('Ctrl Pts',(-6.07534187507073,-4.36378293632982,-2.53018150396575));
#336=CARTESIAN_POINT('Ctrl Pts',(-6.11719724735752,-3.9790887336909,-3.09197907817458));
#337=CARTESIAN_POINT('Ctrl Pts',(-6.17108358861484,-3.37182050851298,-3.69924730335249));
#338=CARTESIAN_POINT('Ctrl Pts',(-6.18599167757507,-3.19250802228296,-3.85561898328778));
#339=CARTESIAN_POINT('Ctrl Pts',(-6.2005025157352,-3.,-4.));
#340=CARTESIAN_POINT('Origin',(0.,2.5,0.));
#341=CARTESIAN_POINT('',(0.,2.675,0.));
#342=CARTESIAN_POINT('Origin',(0.,0.,0.));
#343=CARTESIAN_POINT('Origin',(-9.62098944976498,0.,0.));
#344=CARTESIAN_POINT('',(-9.,2.067,0.));
#345=CARTESIAN_POINT('Origin',(-9.,0.,0.));
#346=CARTESIAN_POINT('Origin',(-0.526543445500939,0.,0.));
#347=CARTESIAN_POINT('',(-1.05308689100188,2.067,0.));
#348=CARTESIAN_POINT('Origin',(-1.05308689100188,0.,0.));
#349=CARTESIAN_POINT('Origin',(-4.5,0.,0.));
#350=CARTESIAN_POINT('Origin',(-16.,-2.75,-2.77555756156293E-016));
#351=CARTESIAN_POINT('',(-12.95,-2.5,-1.92087827848714E-015));
#352=CARTESIAN_POINT('Origin',(-16.,-2.5,-2.77555756156293E-016));
#353=CARTESIAN_POINT('',(-12.6613248654052,-3.,-1.25870223015293E-015));
#354=CARTESIAN_POINT('Origin',(-16.,-3.,-2.77555756156293E-016));
#355=CARTESIAN_POINT('Origin',(-16.,22.3198742106021,-2.77555756156294E-016));
#356=CARTESIAN_POINT('',(-19.05,2.5,6.18756890342905E-016));
#357=CARTESIAN_POINT('Origin',(-16.,2.5,-2.77555756156293E-016));
#358=CARTESIAN_POINT('Origin',(-15.1642503374512,-3.,6.37028684831318E-016));
#359=CARTESIAN_POINT('Origin',(-46.,-3.,0.));
#360=CARTESIAN_POINT('Origin',(-16.,-3.,5.74698425485199E-032));
#361=CARTESIAN_POINT('Origin',(-16.,2.75,-2.77555756156293E-016));
#362=CARTESIAN_POINT('',(-19.3386751345948,3.,1.52130327447506E-015));
#363=CARTESIAN_POINT('Origin',(-16.,3.,-2.77555756156293E-016));
#364=CARTESIAN_POINT('Origin',(-15.1642503374512,3.,6.37028684831318E-016));
#365=CARTESIAN_POINT('Origin',(-16.,3.,5.746984254852E-032));
#366=CARTESIAN_POINT('Origin',(-46.,3.,0.));
#367=CARTESIAN_POINT('Origin',(-46.,-3.,0.));
#368=CARTESIAN_POINT('Origin',(-16.,-2.41218466235553E-015,0.));
#369=CARTESIAN_POINT('Origin',(-46.,3.,0.));
#370=UNCERTAINTY_MEASURE_WITH_UNIT(LENGTH_MEASURE(0.01),#374,
'DISTANCE_ACCURACY_VALUE',
'Maximum model space distance between geometric entities at asserted c
onnectivities');
#371=UNCERTAINTY_MEASURE_WITH_UNIT(LENGTH_MEASURE(1.E-006),#374,
'DISTANCE_ACCURACY_VALUE',
'Maximum model space distance between geometric entities at asserted c
onnectivities');
#372=(
GEOMETRIC_REPRESENTATION_CONTEXT(3)
GLOBAL_UNCERTAINTY_ASSIGNED_CONTEXT((#370))
GLOBAL_UNIT_ASSIGNED_CONTEXT((#374,#377,#375))
REPRESENTATION_CONTEXT('','3D')
);
#373=(
GEOMETRIC_REPRESENTATION_CONTEXT(3)
GLOBAL_UNCERTAINTY_ASSIGNED_CONTEXT((#371))
GLOBAL_UNIT_ASSIGNED_CONTEXT((#374,#377,#375))
REPRESENTATION_CONTEXT('','3D')
);
#374=(
LENGTH_UNIT()
NAMED_UNIT(*)
SI_UNIT(.MILLI.,.METRE.)
);
#375=(
NAMED_UNIT(*)
SI_UNIT($,.STERADIAN.)
SOLID_ANGLE_UNIT()
);
#376=DIMENSIONAL_EXPONENTS(0.,0.,0.,0.,0.,0.,0.);
#377=(
CONVERSION_BASED_UNIT('degree',#379)
NAMED_UNIT(#376)
PLANE_ANGLE_UNIT()
);
#378=(
NAMED_UNIT(*)
PLANE_ANGLE_UNIT()
SI_UNIT($,.RADIAN.)
);
#379=PLANE_ANGLE_MEASURE_WITH_UNIT(PLANE_ANGLE_MEASURE(0.01745329252),#378);
#380=SHAPE_DEFINITION_REPRESENTATION(#381,#382);
#381=PRODUCT_DEFINITION_SHAPE('',$,#384);
#382=SHAPE_REPRESENTATION('',(#197),#372);
#383=PRODUCT_DEFINITION_CONTEXT('part definition',#388,'design');
#384=PRODUCT_DEFINITION('XX2SXXUM5','XX2SXXUM5',#385,#383);
#385=PRODUCT_DEFINITION_FORMATION('',$,#390);
#386=PRODUCT_RELATED_PRODUCT_CATEGORY('XX2SXXUM5','XX2SXXUM5',(#390));
#387=APPLICATION_PROTOCOL_DEFINITION('international standard',
'automotive_design',2009,#388);
#388=APPLICATION_CONTEXT(
'Core Data for Automotive Mechanical Design Process');
#389=PRODUCT_CONTEXT('part definition',#388,'mechanical');
#390=PRODUCT('XX2SXXUM5','XX2SXXUM5',$,(#389));
#391=PRESENTATION_STYLE_ASSIGNMENT((#392));
#392=SURFACE_STYLE_USAGE(.BOTH.,#393);
#393=SURFACE_SIDE_STYLE($,(#394));
#394=SURFACE_STYLE_FILL_AREA(#395);
#395=FILL_AREA_STYLE($,(#396));
#396=FILL_AREA_STYLE_COLOUR($,#397);
#397=COLOUR_RGB('',0.674509803921569,0.764705882352941,0.811764705882353);
ENDSEC;
END-ISO-10303-21;
