ISO-10303-21;
HEADER;
/****************************************************************
 * Generated by software with PDElib inside                    *
 * PDElib Version v51a, created Wed 07/06/2011                  *
 * ITI Transcendata (http://www.transcendata.com/)              *
 ****************************************************************/
FILE_DESCRIPTION((''),'2;1');
FILE_NAME('C:\\eigene Dateien\\Step-Dateien\\Jochen Maier-Quick Ship\\0819-Kolbenstangengelenkauge-XX3SXXUM8.stp','2012-07-16T09:56:08',('CADNEU'),(''),'Autodesk Inventor 2012','Autodesk Inventor 2012','');
FILE_SCHEMA(('AUTOMOTIVE_DESIGN { 1 0 10303 214 1 1 1 1 }'));
ENDSEC;
DATA;
#5=APPLICATION_CONTEXT('automotive design');
#6=APPLICATION_PROTOCOL_DEFINITION('International Standard','automotive_design',2001,#5);
#7=PRODUCT_CONTEXT('',#5,'mechanical');
#8=PRODUCT('XX3SXXUM8','XX3SXXUM8',$,(#7));
#9=PRODUCT_RELATED_PRODUCT_CATEGORY('part',$,(#8));
#10=PRODUCT_DEFINITION_FORMATION('',$,#8);
#11=PRODUCT_DEFINITION_CONTEXT('part definition',#5,'design');
#12=PRODUCT_DEFINITION('',$,#10,#11);
#18=(NAMED_UNIT(*)PLANE_ANGLE_UNIT()SI_UNIT($,.RADIAN.));
#19=DIMENSIONAL_EXPONENTS(0.0,0.0,0.0,0.0,0.0,0.0,0.0);
#20=PLANE_ANGLE_MEASURE_WITH_UNIT(PLANE_ANGLE_MEASURE(0.0174532925),#18);
#24=(CONVERSION_BASED_UNIT('DEGREE',#20)NAMED_UNIT(#19)PLANE_ANGLE_UNIT());
#28=(NAMED_UNIT(*)SI_UNIT($,.STERADIAN.)SOLID_ANGLE_UNIT());
#32=(LENGTH_UNIT()NAMED_UNIT(*)SI_UNIT(.MILLI.,.METRE.));
#34=UNCERTAINTY_MEASURE_WITH_UNIT(LENGTH_MEASURE(0.01),#32,'DISTANCE_ACCURACY_VALUE','');
#36=(GEOMETRIC_REPRESENTATION_CONTEXT(3)GLOBAL_UNCERTAINTY_ASSIGNED_CONTEXT((#34))GLOBAL_UNIT_ASSIGNED_CONTEXT((#24,#28,#32))REPRESENTATION_CONTEXT('None','None'));
#37=AXIS2_PLACEMENT_3D('',#38,#39,#40);
#38=CARTESIAN_POINT('',(0.0,0.0,0.0));
#39=DIRECTION('',(0.0,0.0,1.0));
#40=DIRECTION('',(1.0,0.0,0.0));
#41=SHAPE_REPRESENTATION('',(#37),#36);
#42=PRODUCT_DEFINITION_SHAPE('','',#12);
#43=SHAPE_DEFINITION_REPRESENTATION(#42,#41);
#49=(NAMED_UNIT(*)PLANE_ANGLE_UNIT()SI_UNIT($,.RADIAN.));
#50=DIMENSIONAL_EXPONENTS(0.0,0.0,0.0,0.0,0.0,0.0,0.0);
#51=PLANE_ANGLE_MEASURE_WITH_UNIT(PLANE_ANGLE_MEASURE(0.0174532925),#49);
#55=(CONVERSION_BASED_UNIT('DEGREE',#51)NAMED_UNIT(#50)PLANE_ANGLE_UNIT());
#59=(NAMED_UNIT(*)SI_UNIT($,.STERADIAN.)SOLID_ANGLE_UNIT());
#63=(LENGTH_UNIT()NAMED_UNIT(*)SI_UNIT(.MILLI.,.METRE.));
#65=UNCERTAINTY_MEASURE_WITH_UNIT(LENGTH_MEASURE(0.000001),#63,'DISTANCE_ACCURACY_VALUE','');
#67=(GEOMETRIC_REPRESENTATION_CONTEXT(3)GLOBAL_UNCERTAINTY_ASSIGNED_CONTEXT((#65))GLOBAL_UNIT_ASSIGNED_CONTEXT((#55,#59,#63))REPRESENTATION_CONTEXT('','3D'));
#68=CARTESIAN_POINT('',(-26.0,0.0,0.0));
#69=DIRECTION('',(-1.0,0.0,0.0));
#70=DIRECTION('',(0.0,0.0,1.0));
#71=AXIS2_PLACEMENT_3D('',#68,#69,#70);
#72=PLANE('',#71);
#73=CARTESIAN_POINT('',(-26.0,4.415381E-016,-3.60555127546399));
#74=VERTEX_POINT('',#73);
#75=CARTESIAN_POINT('',(-26.0,0.0,0.0));
#76=DIRECTION('',(1.0,0.0,0.0));
#77=DIRECTION('',(0.0,0.0,1.0));
#78=AXIS2_PLACEMENT_3D('',#75,#76,#77);
#79=CIRCLE('',#78,3.60555127546399);
#80=EDGE_CURVE('',#74,#74,#79,.T.);
#81=ORIENTED_EDGE('',*,*,#80,.F.);
#82=EDGE_LOOP('',(#81));
#83=FACE_OUTER_BOUND('',#82,.T.);
#84=ADVANCED_FACE('',(#83),#72,.T.);
#85=CARTESIAN_POINT('',(-13.998480133669048,0.0,0.0));
#86=DIRECTION('',(1.0,0.0,0.0));
#87=DIRECTION('',(0.0,1.0,0.0));
#88=AXIS2_PLACEMENT_3D('',#85,#86,#87);
#89=CONICAL_SURFACE('',#88,1.66175,59.000000000000007);
#90=CARTESIAN_POINT('',(-13.0,3.3235,0.0));
#91=VERTEX_POINT('',#90);
#92=CARTESIAN_POINT('',(-13.0,0.0,0.0));
#93=DIRECTION('',(1.0,0.0,0.0));
#94=DIRECTION('',(0.0,1.0,0.0));
#95=AXIS2_PLACEMENT_3D('',#92,#93,#94);
#96=CIRCLE('',#95,3.3235);
#97=EDGE_CURVE('',#91,#91,#96,.T.);
#98=ORIENTED_EDGE('',*,*,#97,.T.);
#99=EDGE_LOOP('',(#98));
#100=FACE_OUTER_BOUND('',#99,.T.);
#101=ADVANCED_FACE('',(#100),#89,.F.);
#102=CARTESIAN_POINT('',(-1.044859649665926,0.0,0.0));
#103=DIRECTION('',(1.0,0.0,0.0));
#104=DIRECTION('',(0.0,1.0,0.0));
#105=AXIS2_PLACEMENT_3D('',#102,#103,#104);
#106=CONICAL_SURFACE('',#105,3.926750000000001,30.000000000000004);
#107=CARTESIAN_POINT('',(0.0,4.530000000000001,0.0));
#108=VERTEX_POINT('',#107);
#109=CARTESIAN_POINT('',(0.0,0.0,0.0));
#110=DIRECTION('',(-1.0,0.0,0.0));
#111=DIRECTION('',(0.0,1.0,0.0));
#112=AXIS2_PLACEMENT_3D('',#109,#110,#111);
#113=CIRCLE('',#112,4.53);
#114=EDGE_CURVE('',#108,#108,#113,.T.);
#115=ORIENTED_EDGE('',*,*,#114,.F.);
#116=EDGE_LOOP('',(#115));
#117=FACE_OUTER_BOUND('',#116,.T.);
#118=CARTESIAN_POINT('',(-2.089719299331851,3.3235,0.0));
#119=VERTEX_POINT('',#118);
#120=CARTESIAN_POINT('',(-2.089719299331851,0.0,0.0));
#121=DIRECTION('',(1.0,0.0,0.0));
#122=DIRECTION('',(0.0,1.0,0.0));
#123=AXIS2_PLACEMENT_3D('',#120,#121,#122);
#124=CIRCLE('',#123,3.3235);
#125=EDGE_CURVE('',#119,#119,#124,.T.);
#126=ORIENTED_EDGE('',*,*,#125,.F.);
#127=EDGE_LOOP('',(#126));
#128=FACE_BOUND('',#127,.T.);
#129=ADVANCED_FACE('',(#117,#128),#106,.F.);
#130=CARTESIAN_POINT('',(-6.5,0.0,0.0));
#131=DIRECTION('',(1.0,0.0,0.0));
#132=DIRECTION('',(0.0,1.0,0.0));
#133=AXIS2_PLACEMENT_3D('',#130,#131,#132);
#134=CYLINDRICAL_SURFACE('',#133,3.3235);
#135=ORIENTED_EDGE('',*,*,#125,.T.);
#136=EDGE_LOOP('',(#135));
#137=FACE_OUTER_BOUND('',#136,.T.);
#138=ORIENTED_EDGE('',*,*,#97,.F.);
#139=EDGE_LOOP('',(#138));
#140=FACE_BOUND('',#139,.T.);
#141=ADVANCED_FACE('',(#137,#140),#134,.F.);
#142=CARTESIAN_POINT('',(-20.0,4.750000000000001,5.551115E-016));
#143=DIRECTION('',(0.0,1.0,0.0));
#144=DIRECTION('',(1.0,0.0,0.0));
#145=AXIS2_PLACEMENT_3D('',#142,#143,#144);
#146=CONICAL_SURFACE('',#145,4.194337567297407,30.000000000000139);
#147=CARTESIAN_POINT('',(-24.050000000000004,4.500000000000002,9.769704E-016));
#148=VERTEX_POINT('',#147);
#149=CARTESIAN_POINT('',(-20.0,4.500000000000002,5.551115E-016));
#150=DIRECTION('',(0.0,-1.0,0.0));
#151=DIRECTION('',(1.0,0.0,0.0));
#152=AXIS2_PLACEMENT_3D('',#149,#150,#151);
#153=CIRCLE('',#152,4.050000000000001);
#154=EDGE_CURVE('',#148,#148,#153,.T.);
#155=ORIENTED_EDGE('',*,*,#154,.T.);
#156=EDGE_LOOP('',(#155));
#157=FACE_OUTER_BOUND('',#156,.T.);
#158=CARTESIAN_POINT('',(-24.338675134594816,5.0,2.069673E-015));
#159=VERTEX_POINT('',#158);
#160=CARTESIAN_POINT('',(-20.0,5.0,5.551115E-016));
#161=DIRECTION('',(0.0,1.0,0.0));
#162=DIRECTION('',(1.0,0.0,0.0));
#163=AXIS2_PLACEMENT_3D('',#160,#161,#162);
#164=CIRCLE('',#163,4.338675134594814);
#165=EDGE_CURVE('',#159,#159,#164,.T.);
#166=ORIENTED_EDGE('',*,*,#165,.T.);
#167=EDGE_LOOP('',(#166));
#168=FACE_BOUND('',#167,.T.);
#169=ADVANCED_FACE('',(#157,#168),#146,.F.);
#170=CARTESIAN_POINT('',(-20.0,28.483864784983346,5.551115E-016));
#171=DIRECTION('',(0.0,-1.0,0.0));
#172=DIRECTION('',(1.0,0.0,0.0));
#173=AXIS2_PLACEMENT_3D('',#170,#171,#172);
#174=CYLINDRICAL_SURFACE('',#173,4.050000000000001);
#175=CARTESIAN_POINT('',(-15.949999999999999,-4.500000000000002,-8.586785E-016));
#176=VERTEX_POINT('',#175);
#177=CARTESIAN_POINT('',(-20.0,-4.500000000000002,5.551115E-016));
#178=DIRECTION('',(0.0,1.0,0.0));
#179=DIRECTION('',(-1.0,0.0,0.0));
#180=AXIS2_PLACEMENT_3D('',#177,#178,#179);
#181=CIRCLE('',#180,4.050000000000001);
#182=EDGE_CURVE('',#176,#176,#181,.T.);
#183=ORIENTED_EDGE('',*,*,#182,.F.);
#184=EDGE_LOOP('',(#183));
#185=FACE_OUTER_BOUND('',#184,.T.);
#186=ORIENTED_EDGE('',*,*,#154,.F.);
#187=EDGE_LOOP('',(#186));
#188=FACE_BOUND('',#187,.T.);
#189=ADVANCED_FACE('',(#185,#188),#174,.F.);
#190=CARTESIAN_POINT('',(-18.694448768980227,5.0,-3.798538E-016));
#191=DIRECTION('',(0.0,1.0,0.0));
#192=DIRECTION('',(0.0,0.0,1.0));
#193=AXIS2_PLACEMENT_3D('',#190,#191,#192);
#194=PLANE('',#193);
#195=CARTESIAN_POINT('',(-20.0,5.0,-4.898979485566354));
#196=VERTEX_POINT('',#195);
#197=CARTESIAN_POINT('',(-6.301133517441584,5.0,-4.898979485566349));
#198=VERTEX_POINT('',#197);
#199=CARTESIAN_POINT('',(-20.0,5.0,-4.898979485566356));
#200=DIRECTION('',(1.0,0.0,0.0));
#201=VECTOR('',#200,13.698866482558415);
#202=LINE('',#199,#201);
#203=EDGE_CURVE('',#196,#198,#202,.T.);
#204=ORIENTED_EDGE('',*,*,#203,.F.);
#205=CARTESIAN_POINT('',(-20.0,5.0,4.898979485566354));
#206=VERTEX_POINT('',#205);
#207=CARTESIAN_POINT('',(-20.0,5.0,0.0));
#208=DIRECTION('',(0.0,-1.0,0.0));
#209=DIRECTION('',(0.0,0.0,1.0));
#210=AXIS2_PLACEMENT_3D('',#207,#208,#209);
#211=CIRCLE('',#210,4.898979485566358);
#212=EDGE_CURVE('',#206,#196,#211,.T.);
#213=ORIENTED_EDGE('',*,*,#212,.F.);
#214=CARTESIAN_POINT('',(-6.30113351744158,5.0,4.898979485566358));
#215=VERTEX_POINT('',#214);
#216=CARTESIAN_POINT('',(-6.30113351744158,5.0,4.898979485566356));
#217=DIRECTION('',(-1.0,0.0,0.0));
#218=VECTOR('',#217,13.698866482558421);
#219=LINE('',#216,#218);
#220=EDGE_CURVE('',#215,#206,#219,.T.);
#221=ORIENTED_EDGE('',*,*,#220,.F.);
#222=CARTESIAN_POINT('',(-46.0,5.0,1.142910E-014));
#223=DIRECTION('',(0.0,-1.0,0.0));
#224=DIRECTION('',(-0.979795897113271,0.0,-0.2));
#225=AXIS2_PLACEMENT_3D('',#222,#223,#224);
#226=CIRCLE('',#225,40.0);
#227=EDGE_CURVE('',#198,#215,#226,.T.);
#228=ORIENTED_EDGE('',*,*,#227,.F.);
#229=EDGE_LOOP('',(#204,#213,#221,#228));
#230=FACE_OUTER_BOUND('',#229,.T.);
#231=ORIENTED_EDGE('',*,*,#165,.F.);
#232=EDGE_LOOP('',(#231));
#233=FACE_BOUND('',#232,.T.);
#234=ADVANCED_FACE('',(#230,#233),#194,.T.);
#235=CARTESIAN_POINT('',(-20.0,-4.750000000000001,5.551115E-016));
#236=DIRECTION('',(0.0,-1.0,0.0));
#237=DIRECTION('',(-1.0,0.0,0.0));
#238=AXIS2_PLACEMENT_3D('',#235,#236,#237);
#239=CONICAL_SURFACE('',#238,4.194337567297406,29.999999999999954);
#240=ORIENTED_EDGE('',*,*,#182,.T.);
#241=EDGE_LOOP('',(#240));
#242=FACE_OUTER_BOUND('',#241,.T.);
#243=CARTESIAN_POINT('',(-15.661324865405188,-5.0,1.031834E-016));
#244=VERTEX_POINT('',#243);
#245=CARTESIAN_POINT('',(-20.0,-5.0,5.551115E-016));
#246=DIRECTION('',(0.0,-1.0,0.0));
#247=DIRECTION('',(-1.0,0.0,0.0));
#248=AXIS2_PLACEMENT_3D('',#245,#246,#247);
#249=CIRCLE('',#248,4.338675134594812);
#250=EDGE_CURVE('',#244,#244,#249,.T.);
#251=ORIENTED_EDGE('',*,*,#250,.T.);
#252=EDGE_LOOP('',(#251));
#253=FACE_BOUND('',#252,.T.);
#254=ADVANCED_FACE('',(#242,#253),#239,.F.);
#255=CARTESIAN_POINT('',(-18.694448768980227,-5.0,-3.798538E-016));
#256=DIRECTION('',(0.0,1.0,0.0));
#257=DIRECTION('',(0.0,0.0,1.0));
#258=AXIS2_PLACEMENT_3D('',#255,#256,#257);
#259=PLANE('',#258);
#260=CARTESIAN_POINT('',(-6.301133517441584,-5.0,-4.898979485566349));
#261=VERTEX_POINT('',#260);
#262=CARTESIAN_POINT('',(-20.0,-5.0,-4.898979485566354));
#263=VERTEX_POINT('',#262);
#264=CARTESIAN_POINT('',(-6.301133517441584,-5.0,-4.898979485566356));
#265=DIRECTION('',(-1.0,0.0,0.0));
#266=VECTOR('',#265,13.698866482558415);
#267=LINE('',#264,#266);
#268=EDGE_CURVE('',#261,#263,#267,.T.);
#269=ORIENTED_EDGE('',*,*,#268,.F.);
#270=CARTESIAN_POINT('',(-6.30113351744158,-5.0,4.898979485566358));
#271=VERTEX_POINT('',#270);
#272=CARTESIAN_POINT('',(-46.0,-5.0,1.142910E-014));
#273=DIRECTION('',(0.0,-1.0,0.0));
#274=DIRECTION('',(-0.979795897113271,0.0,-0.2));
#275=AXIS2_PLACEMENT_3D('',#272,#273,#274);
#276=CIRCLE('',#275,40.0);
#277=EDGE_CURVE('',#261,#271,#276,.T.);
#278=ORIENTED_EDGE('',*,*,#277,.T.);
#279=CARTESIAN_POINT('',(-20.0,-5.0,4.898979485566354));
#280=VERTEX_POINT('',#279);
#281=CARTESIAN_POINT('',(-20.0,-5.0,4.898979485566356));
#282=DIRECTION('',(1.0,0.0,0.0));
#283=VECTOR('',#282,13.698866482558421);
#284=LINE('',#281,#283);
#285=EDGE_CURVE('',#280,#271,#284,.T.);
#286=ORIENTED_EDGE('',*,*,#285,.F.);
#287=CARTESIAN_POINT('',(-20.0,-5.0,0.0));
#288=DIRECTION('',(0.0,1.0,0.0));
#289=DIRECTION('',(0.0,0.0,-1.0));
#290=AXIS2_PLACEMENT_3D('',#287,#288,#289);
#291=CIRCLE('',#290,4.898979485566358);
#292=EDGE_CURVE('',#263,#280,#291,.T.);
#293=ORIENTED_EDGE('',*,*,#292,.F.);
#294=EDGE_LOOP('',(#269,#278,#286,#293));
#295=FACE_OUTER_BOUND('',#294,.T.);
#296=ORIENTED_EDGE('',*,*,#250,.F.);
#297=EDGE_LOOP('',(#296));
#298=FACE_BOUND('',#297,.T.);
#299=ADVANCED_FACE('',(#295,#298),#259,.F.);
#300=CARTESIAN_POINT('',(-46.0,-5.0,1.142910E-014));
#301=DIRECTION('',(0.0,1.0,0.0));
#302=DIRECTION('',(-0.979795897113271,0.0,-0.2));
#303=AXIS2_PLACEMENT_3D('',#300,#301,#302);
#304=CYLINDRICAL_SURFACE('',#303,40.0);
#305=CARTESIAN_POINT('',(-6.000000000000001,-7.0,0.0));
#306=VERTEX_POINT('',#305);
#307=CARTESIAN_POINT('',(-5.999999999999997,-7.0,0.0));
#308=CARTESIAN_POINT('',(-5.999999999999997,-7.0,-0.880873691100639));
#309=CARTESIAN_POINT('',(-6.032051592325036,-6.823586441895034,-1.819233555981555));
#310=CARTESIAN_POINT('',(-6.146316026989052,-6.118325597134185,-3.520012815413045));
#311=CARTESIAN_POINT('',(-6.225613778172686,-5.599609609206699,-4.287005490805505));
#312=CARTESIAN_POINT('',(-6.301133517441581,-5.000000000000002,-4.898979485566352));
#313=B_SPLINE_CURVE_WITH_KNOTS('',3,(#307,#308,#309,#310,#311,#312),.UNSPECIFIED.,.F.,.U.,(4,2,4),(3.171196904836914,3.435459012167105,3.69256296175296),.UNSPECIFIED.);
#314=EDGE_CURVE('',#306,#261,#313,.T.);
#315=ORIENTED_EDGE('',*,*,#314,.F.);
#316=CARTESIAN_POINT('',(-6.30113351744158,-4.999999999999999,4.898979485566356));
#317=CARTESIAN_POINT('',(-6.225613778172684,-5.599609609206697,4.287005490805507));
#318=CARTESIAN_POINT('',(-6.146316026989047,-6.118325597134183,3.520012815413048));
#319=CARTESIAN_POINT('',(-6.032051592325033,-6.823586441895033,1.819233555981556));
#320=CARTESIAN_POINT('',(-5.999999999999997,-6.999999999999998,0.880873691100639));
#321=CARTESIAN_POINT('',(-5.999999999999997,-6.999999999999998,-2.775558E-016));
#322=B_SPLINE_CURVE_WITH_KNOTS('',3,(#316,#317,#318,#319,#320,#321),.UNSPECIFIED.,.F.,.U.,(4,2,4),(2.649830847920867,2.906934797506722,3.171196904836914),.UNSPECIFIED.);
#323=EDGE_CURVE('',#271,#306,#322,.T.);
#324=ORIENTED_EDGE('',*,*,#323,.F.);
#325=ORIENTED_EDGE('',*,*,#277,.F.);
#326=EDGE_LOOP('',(#315,#324,#325));
#327=FACE_OUTER_BOUND('',#326,.T.);
#328=ADVANCED_FACE('',(#327),#304,.F.);
#329=CARTESIAN_POINT('',(-20.0,0.0,0.0));
#330=DIRECTION('',(1.0,0.0,0.0));
#331=DIRECTION('',(0.0,-1.0,0.0));
#332=AXIS2_PLACEMENT_3D('',#329,#330,#331);
#333=SPHERICAL_SURFACE('',#332,7.000000000000001);
#334=ORIENTED_EDGE('',*,*,#80,.T.);
#335=EDGE_LOOP('',(#334));
#336=FACE_OUTER_BOUND('',#335,.T.);
#337=ORIENTED_EDGE('',*,*,#292,.T.);
#338=CARTESIAN_POINT('',(-20.0,0.0,0.0));
#339=DIRECTION('',(1.0,0.0,0.0));
#340=DIRECTION('',(0.0,1.0,0.0));
#341=AXIS2_PLACEMENT_3D('',#338,#339,#340);
#342=CIRCLE('',#341,6.999999999999998);
#343=EDGE_CURVE('',#206,#280,#342,.T.);
#344=ORIENTED_EDGE('',*,*,#343,.F.);
#345=ORIENTED_EDGE('',*,*,#212,.T.);
#346=CARTESIAN_POINT('',(-20.0,0.0,0.0));
#347=DIRECTION('',(1.0,0.0,0.0));
#348=DIRECTION('',(0.0,1.0,0.0));
#349=AXIS2_PLACEMENT_3D('',#346,#347,#348);
#350=CIRCLE('',#349,6.999999999999998);
#351=EDGE_CURVE('',#263,#196,#350,.T.);
#352=ORIENTED_EDGE('',*,*,#351,.F.);
#353=EDGE_LOOP('',(#337,#344,#345,#352));
#354=FACE_BOUND('',#353,.T.);
#355=ADVANCED_FACE('',(#336,#354),#333,.T.);
#356=CARTESIAN_POINT('',(-46.0,5.0,1.142910E-014));
#357=DIRECTION('',(0.0,1.0,0.0));
#358=DIRECTION('',(-0.979795897113271,0.0,-0.2));
#359=AXIS2_PLACEMENT_3D('',#356,#357,#358);
#360=CYLINDRICAL_SURFACE('',#359,40.0);
#361=CARTESIAN_POINT('',(-6.000000000000001,7.0,0.0));
#362=VERTEX_POINT('',#361);
#363=CARTESIAN_POINT('',(-6.301133517441581,5.000000000000004,-4.898979485566351));
#364=CARTESIAN_POINT('',(-6.225613778172686,5.599609609206699,-4.287005490805504));
#365=CARTESIAN_POINT('',(-6.146316026989052,6.118325597134185,-3.520012815413045));
#366=CARTESIAN_POINT('',(-6.032051592325036,6.823586441895033,-1.819233555981556));
#367=CARTESIAN_POINT('',(-5.999999999999997,6.999999999999998,-0.880873691100639));
#368=CARTESIAN_POINT('',(-5.999999999999997,6.999999999999998,0.0));
#369=B_SPLINE_CURVE_WITH_KNOTS('',3,(#363,#364,#365,#366,#367,#368),.UNSPECIFIED.,.F.,.U.,(4,2,4),(0.535699578029592,0.792803527615446,1.057065634945638),.UNSPECIFIED.);
#370=EDGE_CURVE('',#198,#362,#369,.T.);
#371=ORIENTED_EDGE('',*,*,#370,.F.);
#372=ORIENTED_EDGE('',*,*,#227,.T.);
#373=CARTESIAN_POINT('',(-5.999999999999997,7.0,2.775558E-016));
#374=CARTESIAN_POINT('',(-5.999999999999997,7.0,0.88087369110064));
#375=CARTESIAN_POINT('',(-6.032051592325033,6.823586441895034,1.819233555981555));
#376=CARTESIAN_POINT('',(-6.146316026989047,6.118325597134186,3.520012815413043));
#377=CARTESIAN_POINT('',(-6.225613778172685,5.599609609206697,4.287005490805508));
#378=CARTESIAN_POINT('',(-6.30113351744158,4.999999999999999,4.898979485566356));
#379=B_SPLINE_CURVE_WITH_KNOTS('',3,(#373,#374,#375,#376,#377,#378),.UNSPECIFIED.,.F.,.U.,(4,2,4),(1.057065634945638,1.32132774227583,1.578431691861684),.UNSPECIFIED.);
#380=EDGE_CURVE('',#362,#215,#379,.T.);
#381=ORIENTED_EDGE('',*,*,#380,.F.);
#382=EDGE_LOOP('',(#371,#372,#381));
#383=FACE_OUTER_BOUND('',#382,.T.);
#384=ADVANCED_FACE('',(#383),#360,.F.);
#385=CARTESIAN_POINT('',(-10.0,0.0,0.0));
#386=DIRECTION('',(1.0,0.0,0.0));
#387=DIRECTION('',(0.0,1.0,0.0));
#388=AXIS2_PLACEMENT_3D('',#385,#386,#387);
#389=CYLINDRICAL_SURFACE('',#388,7.0);
#390=ORIENTED_EDGE('',*,*,#268,.T.);
#391=ORIENTED_EDGE('',*,*,#351,.T.);
#392=ORIENTED_EDGE('',*,*,#203,.T.);
#393=ORIENTED_EDGE('',*,*,#370,.T.);
#394=ORIENTED_EDGE('',*,*,#380,.T.);
#395=ORIENTED_EDGE('',*,*,#220,.T.);
#396=ORIENTED_EDGE('',*,*,#343,.T.);
#397=ORIENTED_EDGE('',*,*,#285,.T.);
#398=ORIENTED_EDGE('',*,*,#323,.T.);
#399=ORIENTED_EDGE('',*,*,#314,.T.);
#400=EDGE_LOOP('',(#390,#391,#392,#393,#394,#395,#396,#397,#398,#399));
#401=FACE_OUTER_BOUND('',#400,.T.);
#402=CARTESIAN_POINT('',(0.0,7.000000000000001,0.0));
#403=VERTEX_POINT('',#402);
#404=CARTESIAN_POINT('',(0.0,0.0,0.0));
#405=DIRECTION('',(1.0,0.0,0.0));
#406=DIRECTION('',(0.0,1.0,0.0));
#407=AXIS2_PLACEMENT_3D('',#404,#405,#406);
#408=CIRCLE('',#407,7.000000000000001);
#409=EDGE_CURVE('',#403,#403,#408,.T.);
#410=ORIENTED_EDGE('',*,*,#409,.F.);
#411=EDGE_LOOP('',(#410));
#412=FACE_BOUND('',#411,.T.);
#413=ADVANCED_FACE('',(#401,#412),#389,.T.);
#414=CARTESIAN_POINT('',(0.0,3.5,0.0));
#415=DIRECTION('',(1.0,0.0,0.0));
#416=DIRECTION('',(0.0,0.0,-1.0));
#417=AXIS2_PLACEMENT_3D('',#414,#415,#416);
#418=PLANE('',#417);
#419=ORIENTED_EDGE('',*,*,#409,.T.);
#420=EDGE_LOOP('',(#419));
#421=FACE_OUTER_BOUND('',#420,.T.);
#422=ORIENTED_EDGE('',*,*,#114,.T.);
#423=EDGE_LOOP('',(#422));
#424=FACE_BOUND('',#423,.T.);
#425=ADVANCED_FACE('',(#421,#424),#418,.T.);
#426=CLOSED_SHELL('',(#84,#101,#129,#141,#169,#189,#234,#254,#299,#328,#355,#384,#413,#425));
#427=MANIFOLD_SOLID_BREP('Volumenk\S\vrper1',#426);
#428=COLOUR_RGB('Zink',0.674509823322296,0.764705896377563,0.811764717102051);
#429=FILL_AREA_STYLE_COLOUR('Zink',#428);
#430=FILL_AREA_STYLE('Zink',(#429));
#431=SURFACE_STYLE_FILL_AREA(#430);
#432=SURFACE_SIDE_STYLE('Zink',(#431));
#433=SURFACE_STYLE_USAGE(.BOTH.,#432);
#434=PRESENTATION_STYLE_ASSIGNMENT((#433));
#435=STYLED_ITEM('',(#434),#427);
#436=MECHANICAL_DESIGN_GEOMETRIC_PRESENTATION_REPRESENTATION('',(#435),#36);
#437=ADVANCED_BREP_SHAPE_REPRESENTATION('ABSR',(#427),#36);
#438=SHAPE_REPRESENTATION_RELATIONSHIP('SRR','None',#437,#41);
ENDSEC;
END-ISO-10303-21;
