ISO-10303-21;
HEADER;
/* Generated by software containing ST-Developer
 * from STEP Tools, Inc. (www.steptools.com) 
 */

FILE_DESCRIPTION(
/* description */ (''),
/* implementation_level */ '2;1');

FILE_NAME(
/* name */ 
'X:\\3D-Zeichnungen\\Zusammenbau-Zeichnungen\\Kundenzeichnungen\\Daemp
fer\\V0V0XA6-100-240--004-000N\\Step-Datei\\V0V0XA6-100-240--004-000N.
stp',
/* time_stamp */ '2014-06-03T10:07:09+02:00',
/* author */ ('CADNEU'),
/* organization */ (''),
/* preprocessor_version */ 'ST-DEVELOPER v15.2',
/* originating_system */ 'Autodesk Inventor 2014',
/* authorisation */ '');

FILE_SCHEMA (('AUTOMOTIVE_DESIGN { 1 0 10303 214 3 1 1 }'));
ENDSEC;

DATA;
#10=ITEM_DEFINED_TRANSFORMATION($,$,#323,#378);
#11=ITEM_DEFINED_TRANSFORMATION($,$,#335,#379);
#12=ITEM_DEFINED_TRANSFORMATION($,$,#363,#380);
#13=ITEM_DEFINED_TRANSFORMATION($,$,#369,#381);
#14=(
REPRESENTATION_RELATIONSHIP($,$,#612,#616)
REPRESENTATION_RELATIONSHIP_WITH_TRANSFORMATION(#10)
SHAPE_REPRESENTATION_RELATIONSHIP()
);
#15=(
REPRESENTATION_RELATIONSHIP($,$,#613,#616)
REPRESENTATION_RELATIONSHIP_WITH_TRANSFORMATION(#11)
SHAPE_REPRESENTATION_RELATIONSHIP()
);
#16=(
REPRESENTATION_RELATIONSHIP($,$,#614,#616)
REPRESENTATION_RELATIONSHIP_WITH_TRANSFORMATION(#12)
SHAPE_REPRESENTATION_RELATIONSHIP()
);
#17=(
REPRESENTATION_RELATIONSHIP($,$,#615,#616)
REPRESENTATION_RELATIONSHIP_WITH_TRANSFORMATION(#13)
SHAPE_REPRESENTATION_RELATIONSHIP()
);
#18=CONTEXT_DEPENDENT_SHAPE_REPRESENTATION(#14,#608);
#19=CONTEXT_DEPENDENT_SHAPE_REPRESENTATION(#15,#609);
#20=CONTEXT_DEPENDENT_SHAPE_REPRESENTATION(#16,#610);
#21=CONTEXT_DEPENDENT_SHAPE_REPRESENTATION(#17,#611);
#22=NEXT_ASSEMBLY_USAGE_OCCURRENCE('Zylinder_15:1',$,$,#622,#618,$);
#23=NEXT_ASSEMBLY_USAGE_OCCURRENCE('Gewindeanschlu\X\DF_V0_15_VE:1',$,$,
#622,#619,$);
#24=NEXT_ASSEMBLY_USAGE_OCCURRENCE('Kolbenstange_06:1',$,$,#622,#620,$);
#25=NEXT_ASSEMBLY_USAGE_OCCURRENCE('Gewindeanschlu\X\DF_V0:1',$,$,#622,
#621,$);
#26=SHAPE_REPRESENTATION_RELATIONSHIP('SRR','None',#612,#30);
#27=SHAPE_REPRESENTATION_RELATIONSHIP('SRR','None',#613,#31);
#28=SHAPE_REPRESENTATION_RELATIONSHIP('SRR','None',#614,#32);
#29=SHAPE_REPRESENTATION_RELATIONSHIP('SRR','None',#615,#33);
#30=ADVANCED_BREP_SHAPE_REPRESENTATION($,(#319),#587);
#31=ADVANCED_BREP_SHAPE_REPRESENTATION($,(#320),#588);
#32=ADVANCED_BREP_SHAPE_REPRESENTATION($,(#321),#589);
#33=ADVANCED_BREP_SHAPE_REPRESENTATION($,(#322),#590);
#34=TOROIDAL_SURFACE($,#332,4.44000004000816,3.05999995999187);
#35=TOROIDAL_SURFACE($,#362,4.4,3.1);
#36=CONICAL_SURFACE($,#330,5.34858292181948,74.9999999999997);
#37=CONICAL_SURFACE($,#336,5.38026929605217,75.);
#38=CONICAL_SURFACE($,#345,2.32500000000002,44.9999999999996);
#39=CONICAL_SURFACE($,#355,0.800000000000002,44.9999999999986);
#40=CONICAL_SURFACE($,#374,2.35,45.);
#41=FACE_BOUND($,#99,.T.);
#42=FACE_BOUND($,#101,.T.);
#43=FACE_BOUND($,#103,.T.);
#44=FACE_BOUND($,#105,.T.);
#45=FACE_BOUND($,#107,.T.);
#46=FACE_BOUND($,#109,.T.);
#47=FACE_BOUND($,#110,.T.);
#48=FACE_BOUND($,#111,.T.);
#49=FACE_BOUND($,#113,.T.);
#50=FACE_BOUND($,#115,.T.);
#51=FACE_BOUND($,#116,.T.);
#52=FACE_BOUND($,#117,.T.);
#53=FACE_BOUND($,#119,.T.);
#54=FACE_BOUND($,#120,.T.);
#55=FACE_BOUND($,#121,.T.);
#56=FACE_BOUND($,#123,.T.);
#57=FACE_BOUND($,#125,.T.);
#58=FACE_BOUND($,#129,.T.);
#59=FACE_BOUND($,#131,.T.);
#60=FACE_BOUND($,#134,.T.);
#61=FACE_BOUND($,#138,.T.);
#62=FACE_BOUND($,#140,.T.);
#63=CYLINDRICAL_SURFACE($,#328,5.40000001530313);
#64=CYLINDRICAL_SURFACE($,#334,7.50000000000003);
#65=CYLINDRICAL_SURFACE($,#339,5.45);
#66=CYLINDRICAL_SURFACE($,#343,2.50000000000002);
#67=CYLINDRICAL_SURFACE($,#349,1.075);
#68=CYLINDRICAL_SURFACE($,#353,0.95);
#69=CYLINDRICAL_SURFACE($,#360,7.5);
#70=CYLINDRICAL_SURFACE($,#366,3.00000000000001);
#71=CYLINDRICAL_SURFACE($,#372,2.5);
#72=FACE_OUTER_BOUND($,#96,.T.);
#73=FACE_OUTER_BOUND($,#97,.T.);
#74=FACE_OUTER_BOUND($,#98,.T.);
#75=FACE_OUTER_BOUND($,#100,.T.);
#76=FACE_OUTER_BOUND($,#102,.T.);
#77=FACE_OUTER_BOUND($,#104,.T.);
#78=FACE_OUTER_BOUND($,#106,.T.);
#79=FACE_OUTER_BOUND($,#108,.T.);
#80=FACE_OUTER_BOUND($,#112,.T.);
#81=FACE_OUTER_BOUND($,#114,.T.);
#82=FACE_OUTER_BOUND($,#118,.T.);
#83=FACE_OUTER_BOUND($,#122,.T.);
#84=FACE_OUTER_BOUND($,#124,.T.);
#85=FACE_OUTER_BOUND($,#126,.T.);
#86=FACE_OUTER_BOUND($,#127,.T.);
#87=FACE_OUTER_BOUND($,#128,.T.);
#88=FACE_OUTER_BOUND($,#130,.T.);
#89=FACE_OUTER_BOUND($,#132,.T.);
#90=FACE_OUTER_BOUND($,#133,.T.);
#91=FACE_OUTER_BOUND($,#135,.T.);
#92=FACE_OUTER_BOUND($,#136,.T.);
#93=FACE_OUTER_BOUND($,#137,.T.);
#94=FACE_OUTER_BOUND($,#139,.T.);
#95=FACE_OUTER_BOUND($,#141,.T.);
#96=EDGE_LOOP($,(#211));
#97=EDGE_LOOP($,(#212));
#98=EDGE_LOOP($,(#213));
#99=EDGE_LOOP($,(#214));
#100=EDGE_LOOP($,(#215));
#101=EDGE_LOOP($,(#216));
#102=EDGE_LOOP($,(#217));
#103=EDGE_LOOP($,(#218));
#104=EDGE_LOOP($,(#219));
#105=EDGE_LOOP($,(#220));
#106=EDGE_LOOP($,(#221));
#107=EDGE_LOOP($,(#222));
#108=EDGE_LOOP($,(#223));
#109=EDGE_LOOP($,(#224));
#110=EDGE_LOOP($,(#225));
#111=EDGE_LOOP($,(#226));
#112=EDGE_LOOP($,(#227));
#113=EDGE_LOOP($,(#228));
#114=EDGE_LOOP($,(#229));
#115=EDGE_LOOP($,(#230));
#116=EDGE_LOOP($,(#231));
#117=EDGE_LOOP($,(#232));
#118=EDGE_LOOP($,(#233));
#119=EDGE_LOOP($,(#234));
#120=EDGE_LOOP($,(#235));
#121=EDGE_LOOP($,(#236));
#122=EDGE_LOOP($,(#237));
#123=EDGE_LOOP($,(#238));
#124=EDGE_LOOP($,(#239));
#125=EDGE_LOOP($,(#240));
#126=EDGE_LOOP($,(#241));
#127=EDGE_LOOP($,(#242));
#128=EDGE_LOOP($,(#243));
#129=EDGE_LOOP($,(#244));
#130=EDGE_LOOP($,(#245));
#131=EDGE_LOOP($,(#246));
#132=EDGE_LOOP($,(#247));
#133=EDGE_LOOP($,(#248));
#134=EDGE_LOOP($,(#249));
#135=EDGE_LOOP($,(#250));
#136=EDGE_LOOP($,(#251));
#137=EDGE_LOOP($,(#252));
#138=EDGE_LOOP($,(#253));
#139=EDGE_LOOP($,(#254));
#140=EDGE_LOOP($,(#255));
#141=EDGE_LOOP($,(#256));
#142=CIRCLE($,#325,7.50000000000003);
#143=CIRCLE($,#327,5.40000001530313);
#144=CIRCLE($,#329,5.40000001530313);
#145=CIRCLE($,#331,5.29716582833583);
#146=CIRCLE($,#333,7.50000000000003);
#147=CIRCLE($,#337,5.45);
#148=CIRCLE($,#338,5.31053859210434);
#149=CIRCLE($,#340,5.45);
#150=CIRCLE($,#342,2.50000000000002);
#151=CIRCLE($,#344,2.50000000000002);
#152=CIRCLE($,#346,2.15000000000002);
#153=CIRCLE($,#348,1.075);
#154=CIRCLE($,#350,1.075);
#155=CIRCLE($,#352,0.95);
#156=CIRCLE($,#354,0.95);
#157=CIRCLE($,#356,0.650000000000005);
#158=CIRCLE($,#359,7.5);
#159=CIRCLE($,#361,7.5);
#160=CIRCLE($,#365,3.);
#161=CIRCLE($,#367,3.00000000000001);
#162=CIRCLE($,#371,2.5);
#163=CIRCLE($,#373,2.5);
#164=CIRCLE($,#375,2.2);
#165=VERTEX_POINT($,#502);
#166=VERTEX_POINT($,#505);
#167=VERTEX_POINT($,#508);
#168=VERTEX_POINT($,#511);
#169=VERTEX_POINT($,#514);
#170=VERTEX_POINT($,#519);
#171=VERTEX_POINT($,#521);
#172=VERTEX_POINT($,#524);
#173=VERTEX_POINT($,#527);
#174=VERTEX_POINT($,#530);
#175=VERTEX_POINT($,#533);
#176=VERTEX_POINT($,#536);
#177=VERTEX_POINT($,#539);
#178=VERTEX_POINT($,#542);
#179=VERTEX_POINT($,#545);
#180=VERTEX_POINT($,#548);
#181=VERTEX_POINT($,#552);
#182=VERTEX_POINT($,#555);
#183=VERTEX_POINT($,#560);
#184=VERTEX_POINT($,#563);
#185=VERTEX_POINT($,#568);
#186=VERTEX_POINT($,#571);
#187=VERTEX_POINT($,#574);
#188=EDGE_CURVE($,#165,#165,#142,.T.);
#189=EDGE_CURVE($,#166,#166,#143,.T.);
#190=EDGE_CURVE($,#167,#167,#144,.T.);
#191=EDGE_CURVE($,#168,#168,#145,.T.);
#192=EDGE_CURVE($,#169,#169,#146,.T.);
#193=EDGE_CURVE($,#170,#170,#147,.T.);
#194=EDGE_CURVE($,#171,#171,#148,.T.);
#195=EDGE_CURVE($,#172,#172,#149,.T.);
#196=EDGE_CURVE($,#173,#173,#150,.T.);
#197=EDGE_CURVE($,#174,#174,#151,.T.);
#198=EDGE_CURVE($,#175,#175,#152,.T.);
#199=EDGE_CURVE($,#176,#176,#153,.T.);
#200=EDGE_CURVE($,#177,#177,#154,.T.);
#201=EDGE_CURVE($,#178,#178,#155,.T.);
#202=EDGE_CURVE($,#179,#179,#156,.T.);
#203=EDGE_CURVE($,#180,#180,#157,.T.);
#204=EDGE_CURVE($,#181,#181,#158,.T.);
#205=EDGE_CURVE($,#182,#182,#159,.T.);
#206=EDGE_CURVE($,#183,#183,#160,.T.);
#207=EDGE_CURVE($,#184,#184,#161,.T.);
#208=EDGE_CURVE($,#185,#185,#162,.T.);
#209=EDGE_CURVE($,#186,#186,#163,.T.);
#210=EDGE_CURVE($,#187,#187,#164,.T.);
#211=ORIENTED_EDGE($,*,*,#188,.T.);
#212=ORIENTED_EDGE($,*,*,#189,.F.);
#213=ORIENTED_EDGE($,*,*,#190,.F.);
#214=ORIENTED_EDGE($,*,*,#189,.T.);
#215=ORIENTED_EDGE($,*,*,#191,.F.);
#216=ORIENTED_EDGE($,*,*,#190,.T.);
#217=ORIENTED_EDGE($,*,*,#192,.F.);
#218=ORIENTED_EDGE($,*,*,#191,.T.);
#219=ORIENTED_EDGE($,*,*,#188,.F.);
#220=ORIENTED_EDGE($,*,*,#192,.T.);
#221=ORIENTED_EDGE($,*,*,#193,.F.);
#222=ORIENTED_EDGE($,*,*,#194,.T.);
#223=ORIENTED_EDGE($,*,*,#195,.F.);
#224=ORIENTED_EDGE($,*,*,#193,.T.);
#225=ORIENTED_EDGE($,*,*,#196,.F.);
#226=ORIENTED_EDGE($,*,*,#195,.T.);
#227=ORIENTED_EDGE($,*,*,#197,.F.);
#228=ORIENTED_EDGE($,*,*,#196,.T.);
#229=ORIENTED_EDGE($,*,*,#198,.F.);
#230=ORIENTED_EDGE($,*,*,#197,.T.);
#231=ORIENTED_EDGE($,*,*,#199,.F.);
#232=ORIENTED_EDGE($,*,*,#198,.T.);
#233=ORIENTED_EDGE($,*,*,#200,.F.);
#234=ORIENTED_EDGE($,*,*,#199,.T.);
#235=ORIENTED_EDGE($,*,*,#201,.F.);
#236=ORIENTED_EDGE($,*,*,#200,.T.);
#237=ORIENTED_EDGE($,*,*,#202,.F.);
#238=ORIENTED_EDGE($,*,*,#201,.T.);
#239=ORIENTED_EDGE($,*,*,#203,.F.);
#240=ORIENTED_EDGE($,*,*,#202,.T.);
#241=ORIENTED_EDGE($,*,*,#203,.T.);
#242=ORIENTED_EDGE($,*,*,#204,.F.);
#243=ORIENTED_EDGE($,*,*,#205,.F.);
#244=ORIENTED_EDGE($,*,*,#204,.T.);
#245=ORIENTED_EDGE($,*,*,#194,.F.);
#246=ORIENTED_EDGE($,*,*,#205,.T.);
#247=ORIENTED_EDGE($,*,*,#206,.F.);
#248=ORIENTED_EDGE($,*,*,#207,.F.);
#249=ORIENTED_EDGE($,*,*,#206,.T.);
#250=ORIENTED_EDGE($,*,*,#207,.T.);
#251=ORIENTED_EDGE($,*,*,#208,.F.);
#252=ORIENTED_EDGE($,*,*,#209,.F.);
#253=ORIENTED_EDGE($,*,*,#208,.T.);
#254=ORIENTED_EDGE($,*,*,#210,.F.);
#255=ORIENTED_EDGE($,*,*,#209,.T.);
#256=ORIENTED_EDGE($,*,*,#210,.T.);
#257=PLANE($,#324);
#258=PLANE($,#326);
#259=PLANE($,#341);
#260=PLANE($,#347);
#261=PLANE($,#351);
#262=PLANE($,#357);
#263=PLANE($,#358);
#264=PLANE($,#364);
#265=PLANE($,#368);
#266=PLANE($,#370);
#267=PLANE($,#376);
#268=STYLED_ITEM($,(#637),#288);
#269=STYLED_ITEM($,(#638),#289);
#270=STYLED_ITEM($,(#638),#290);
#271=STYLED_ITEM($,(#638),#291);
#272=STYLED_ITEM($,(#637),#292);
#273=STYLED_ITEM($,(#637),#293);
#274=STYLED_ITEM($,(#636),#319);
#275=STYLED_ITEM($,(#639),#294);
#276=STYLED_ITEM($,(#639),#295);
#277=STYLED_ITEM($,(#639),#296);
#278=STYLED_ITEM($,(#639),#297);
#279=STYLED_ITEM($,(#639),#298);
#280=STYLED_ITEM($,(#639),#299);
#281=STYLED_ITEM($,(#639),#300);
#282=STYLED_ITEM($,(#637),#305);
#283=STYLED_ITEM($,(#637),#306);
#284=STYLED_ITEM($,(#637),#307);
#285=STYLED_ITEM($,(#638),#320);
#286=STYLED_ITEM($,(#637),#321);
#287=STYLED_ITEM($,(#637),#322);
#288=ADVANCED_FACE($,(#72),#257,.T.);
#289=ADVANCED_FACE($,(#73),#258,.T.);
#290=ADVANCED_FACE($,(#74,#41),#63,.T.);
#291=ADVANCED_FACE($,(#75,#42),#36,.T.);
#292=ADVANCED_FACE($,(#76,#43),#34,.T.);
#293=ADVANCED_FACE($,(#77,#44),#64,.T.);
#294=ADVANCED_FACE($,(#78,#45),#37,.T.);
#295=ADVANCED_FACE($,(#79,#46),#65,.T.);
#296=ADVANCED_FACE($,(#47,#48),#259,.T.);
#297=ADVANCED_FACE($,(#80,#49),#66,.T.);
#298=ADVANCED_FACE($,(#81,#50),#38,.T.);
#299=ADVANCED_FACE($,(#51,#52),#260,.T.);
#300=ADVANCED_FACE($,(#82,#53),#67,.F.);
#301=ADVANCED_FACE($,(#54,#55),#261,.T.);
#302=ADVANCED_FACE($,(#83,#56),#68,.T.);
#303=ADVANCED_FACE($,(#84,#57),#39,.T.);
#304=ADVANCED_FACE($,(#85),#262,.T.);
#305=ADVANCED_FACE($,(#86),#263,.T.);
#306=ADVANCED_FACE($,(#87,#58),#69,.T.);
#307=ADVANCED_FACE($,(#88,#59),#35,.T.);
#308=ADVANCED_FACE($,(#89),#264,.T.);
#309=ADVANCED_FACE($,(#90,#60),#70,.T.);
#310=ADVANCED_FACE($,(#91),#265,.T.);
#311=ADVANCED_FACE($,(#92),#266,.T.);
#312=ADVANCED_FACE($,(#93,#61),#71,.T.);
#313=ADVANCED_FACE($,(#94,#62),#40,.T.);
#314=ADVANCED_FACE($,(#95),#267,.T.);
#315=CLOSED_SHELL($,(#288,#289,#290,#291,#292,#293));
#316=CLOSED_SHELL($,(#294,#295,#296,#297,#298,#299,#300,#301,#302,#303,
#304,#305,#306,#307));
#317=CLOSED_SHELL($,(#308,#309,#310));
#318=CLOSED_SHELL($,(#311,#312,#313,#314));
#319=MANIFOLD_SOLID_BREP('Volumenk\X\F6rper1',#315);
#320=MANIFOLD_SOLID_BREP('Volumenk\X\F6rper1',#316);
#321=MANIFOLD_SOLID_BREP('Volumenk\X\F6rper2',#317);
#322=MANIFOLD_SOLID_BREP('Volumenk\X\F6rper2',#318);
#323=AXIS2_PLACEMENT_3D('placement',#500,#382,#383);
#324=AXIS2_PLACEMENT_3D($,#501,#384,#385);
#325=AXIS2_PLACEMENT_3D($,#503,#386,#387);
#326=AXIS2_PLACEMENT_3D($,#504,#388,#389);
#327=AXIS2_PLACEMENT_3D($,#506,#390,#391);
#328=AXIS2_PLACEMENT_3D($,#507,#392,#393);
#329=AXIS2_PLACEMENT_3D($,#509,#394,#395);
#330=AXIS2_PLACEMENT_3D($,#510,#396,#397);
#331=AXIS2_PLACEMENT_3D($,#512,#398,#399);
#332=AXIS2_PLACEMENT_3D($,#513,#400,#401);
#333=AXIS2_PLACEMENT_3D($,#515,#402,#403);
#334=AXIS2_PLACEMENT_3D($,#516,#404,#405);
#335=AXIS2_PLACEMENT_3D('placement',#517,#406,#407);
#336=AXIS2_PLACEMENT_3D($,#518,#408,#409);
#337=AXIS2_PLACEMENT_3D($,#520,#410,#411);
#338=AXIS2_PLACEMENT_3D($,#522,#412,#413);
#339=AXIS2_PLACEMENT_3D($,#523,#414,#415);
#340=AXIS2_PLACEMENT_3D($,#525,#416,#417);
#341=AXIS2_PLACEMENT_3D($,#526,#418,#419);
#342=AXIS2_PLACEMENT_3D($,#528,#420,#421);
#343=AXIS2_PLACEMENT_3D($,#529,#422,#423);
#344=AXIS2_PLACEMENT_3D($,#531,#424,#425);
#345=AXIS2_PLACEMENT_3D($,#532,#426,#427);
#346=AXIS2_PLACEMENT_3D($,#534,#428,#429);
#347=AXIS2_PLACEMENT_3D($,#535,#430,#431);
#348=AXIS2_PLACEMENT_3D($,#537,#432,#433);
#349=AXIS2_PLACEMENT_3D($,#538,#434,#435);
#350=AXIS2_PLACEMENT_3D($,#540,#436,#437);
#351=AXIS2_PLACEMENT_3D($,#541,#438,#439);
#352=AXIS2_PLACEMENT_3D($,#543,#440,#441);
#353=AXIS2_PLACEMENT_3D($,#544,#442,#443);
#354=AXIS2_PLACEMENT_3D($,#546,#444,#445);
#355=AXIS2_PLACEMENT_3D($,#547,#446,#447);
#356=AXIS2_PLACEMENT_3D($,#549,#448,#449);
#357=AXIS2_PLACEMENT_3D($,#550,#450,#451);
#358=AXIS2_PLACEMENT_3D($,#551,#452,#453);
#359=AXIS2_PLACEMENT_3D($,#553,#454,#455);
#360=AXIS2_PLACEMENT_3D($,#554,#456,#457);
#361=AXIS2_PLACEMENT_3D($,#556,#458,#459);
#362=AXIS2_PLACEMENT_3D($,#557,#460,#461);
#363=AXIS2_PLACEMENT_3D('placement',#558,#462,#463);
#364=AXIS2_PLACEMENT_3D($,#559,#464,#465);
#365=AXIS2_PLACEMENT_3D($,#561,#466,#467);
#366=AXIS2_PLACEMENT_3D($,#562,#468,#469);
#367=AXIS2_PLACEMENT_3D($,#564,#470,#471);
#368=AXIS2_PLACEMENT_3D($,#565,#472,#473);
#369=AXIS2_PLACEMENT_3D('placement',#566,#474,#475);
#370=AXIS2_PLACEMENT_3D($,#567,#476,#477);
#371=AXIS2_PLACEMENT_3D($,#569,#478,#479);
#372=AXIS2_PLACEMENT_3D($,#570,#480,#481);
#373=AXIS2_PLACEMENT_3D($,#572,#482,#483);
#374=AXIS2_PLACEMENT_3D($,#573,#484,#485);
#375=AXIS2_PLACEMENT_3D($,#575,#486,#487);
#376=AXIS2_PLACEMENT_3D($,#576,#488,#489);
#377=AXIS2_PLACEMENT_3D('placement',#577,#490,#491);
#378=AXIS2_PLACEMENT_3D($,#578,#492,#493);
#379=AXIS2_PLACEMENT_3D($,#579,#494,#495);
#380=AXIS2_PLACEMENT_3D($,#580,#496,#497);
#381=AXIS2_PLACEMENT_3D($,#581,#498,#499);
#382=DIRECTION('axis',(0.,0.,1.));
#383=DIRECTION('refdir',(1.,0.,0.));
#384=DIRECTION('center_axis',(1.,0.,0.));
#385=DIRECTION('ref_axis',(0.,0.,-1.));
#386=DIRECTION('center_axis',(1.,0.,0.));
#387=DIRECTION('ref_axis',(0.,1.,0.));
#388=DIRECTION('center_axis',(-1.,0.,0.));
#389=DIRECTION('ref_axis',(0.,0.,1.));
#390=DIRECTION('center_axis',(1.,0.,0.));
#391=DIRECTION('ref_axis',(0.,1.,0.));
#392=DIRECTION('center_axis',(1.,0.,0.));
#393=DIRECTION('ref_axis',(0.,1.,0.));
#394=DIRECTION('center_axis',(1.,0.,0.));
#395=DIRECTION('ref_axis',(0.,1.,0.));
#396=DIRECTION('center_axis',(-1.,0.,0.));
#397=DIRECTION('ref_axis',(0.,1.,0.));
#398=DIRECTION('center_axis',(1.,0.,0.));
#399=DIRECTION('ref_axis',(0.,1.,0.));
#400=DIRECTION('center_axis',(1.,0.,0.));
#401=DIRECTION('ref_axis',(0.,0.,-1.));
#402=DIRECTION('center_axis',(1.,0.,0.));
#403=DIRECTION('ref_axis',(0.,1.,0.));
#404=DIRECTION('center_axis',(1.,0.,0.));
#405=DIRECTION('ref_axis',(0.,1.,0.));
#406=DIRECTION('axis',(0.,0.,1.));
#407=DIRECTION('refdir',(1.,0.,0.));
#408=DIRECTION('center_axis',(1.,0.,0.));
#409=DIRECTION('ref_axis',(0.,1.,0.));
#410=DIRECTION('center_axis',(1.,0.,0.));
#411=DIRECTION('ref_axis',(0.,1.,0.));
#412=DIRECTION('center_axis',(1.,0.,0.));
#413=DIRECTION('ref_axis',(0.,1.,0.));
#414=DIRECTION('center_axis',(1.,0.,0.));
#415=DIRECTION('ref_axis',(0.,1.,0.));
#416=DIRECTION('center_axis',(1.,0.,0.));
#417=DIRECTION('ref_axis',(0.,1.,0.));
#418=DIRECTION('center_axis',(1.,0.,0.));
#419=DIRECTION('ref_axis',(0.,0.,-1.));
#420=DIRECTION('center_axis',(1.,0.,0.));
#421=DIRECTION('ref_axis',(0.,1.,0.));
#422=DIRECTION('center_axis',(1.,0.,0.));
#423=DIRECTION('ref_axis',(0.,1.,0.));
#424=DIRECTION('center_axis',(1.,0.,0.));
#425=DIRECTION('ref_axis',(0.,1.,0.));
#426=DIRECTION('center_axis',(-1.,0.,0.));
#427=DIRECTION('ref_axis',(0.,1.,0.));
#428=DIRECTION('center_axis',(1.,0.,0.));
#429=DIRECTION('ref_axis',(0.,1.,0.));
#430=DIRECTION('center_axis',(1.,0.,0.));
#431=DIRECTION('ref_axis',(0.,0.,-1.));
#432=DIRECTION('center_axis',(1.,0.,0.));
#433=DIRECTION('ref_axis',(0.,1.,0.));
#434=DIRECTION('center_axis',(1.,0.,0.));
#435=DIRECTION('ref_axis',(0.,1.,0.));
#436=DIRECTION('center_axis',(1.,0.,0.));
#437=DIRECTION('ref_axis',(0.,1.,0.));
#438=DIRECTION('center_axis',(1.,0.,0.));
#439=DIRECTION('ref_axis',(0.,0.,-1.));
#440=DIRECTION('center_axis',(1.,0.,0.));
#441=DIRECTION('ref_axis',(0.,1.,0.));
#442=DIRECTION('center_axis',(1.,0.,0.));
#443=DIRECTION('ref_axis',(0.,1.,0.));
#444=DIRECTION('center_axis',(1.,0.,0.));
#445=DIRECTION('ref_axis',(0.,1.,0.));
#446=DIRECTION('center_axis',(-1.,0.,0.));
#447=DIRECTION('ref_axis',(0.,1.,0.));
#448=DIRECTION('center_axis',(1.,0.,0.));
#449=DIRECTION('ref_axis',(0.,1.,0.));
#450=DIRECTION('center_axis',(1.,0.,0.));
#451=DIRECTION('ref_axis',(0.,0.,-1.));
#452=DIRECTION('center_axis',(-1.,0.,0.));
#453=DIRECTION('ref_axis',(0.,0.,1.));
#454=DIRECTION('center_axis',(1.,0.,0.));
#455=DIRECTION('ref_axis',(0.,1.,0.));
#456=DIRECTION('center_axis',(1.,0.,0.));
#457=DIRECTION('ref_axis',(0.,1.,0.));
#458=DIRECTION('center_axis',(1.,0.,0.));
#459=DIRECTION('ref_axis',(0.,1.,0.));
#460=DIRECTION('center_axis',(1.,0.,0.));
#461=DIRECTION('ref_axis',(0.,0.,-1.));
#462=DIRECTION('axis',(0.,0.,1.));
#463=DIRECTION('refdir',(1.,0.,0.));
#464=DIRECTION('center_axis',(-1.,0.,0.));
#465=DIRECTION('ref_axis',(0.,0.,1.));
#466=DIRECTION('center_axis',(1.,0.,0.));
#467=DIRECTION('ref_axis',(0.,1.,0.));
#468=DIRECTION('center_axis',(1.,0.,0.));
#469=DIRECTION('ref_axis',(0.,1.,0.));
#470=DIRECTION('center_axis',(1.,0.,0.));
#471=DIRECTION('ref_axis',(0.,1.,0.));
#472=DIRECTION('center_axis',(1.,0.,0.));
#473=DIRECTION('ref_axis',(0.,0.,-1.));
#474=DIRECTION('axis',(0.,0.,1.));
#475=DIRECTION('refdir',(1.,0.,0.));
#476=DIRECTION('center_axis',(1.,0.,0.));
#477=DIRECTION('ref_axis',(0.,0.,-1.));
#478=DIRECTION('center_axis',(-1.,0.,0.));
#479=DIRECTION('ref_axis',(0.,-1.,0.));
#480=DIRECTION('center_axis',(-1.,0.,0.));
#481=DIRECTION('ref_axis',(0.,-1.,0.));
#482=DIRECTION('center_axis',(-1.,0.,0.));
#483=DIRECTION('ref_axis',(0.,-1.,0.));
#484=DIRECTION('center_axis',(1.,0.,0.));
#485=DIRECTION('ref_axis',(0.,-1.,0.));
#486=DIRECTION('center_axis',(-1.,0.,0.));
#487=DIRECTION('ref_axis',(0.,-1.,0.));
#488=DIRECTION('center_axis',(-1.,0.,0.));
#489=DIRECTION('ref_axis',(0.,0.,1.));
#490=DIRECTION('axis',(0.,0.,1.));
#491=DIRECTION('refdir',(1.,0.,0.));
#492=DIRECTION($,(0.,0.,1.));
#493=DIRECTION($,(1.,0.,0.));
#494=DIRECTION($,(0.,0.,1.));
#495=DIRECTION($,(1.,0.,0.));
#496=DIRECTION($,(-9.67426148534819E-019,0.0275716696151283,-0.999619829252418));
#497=DIRECTION($,(1.,-2.77555756156289E-017,-1.73335267937059E-018));
#498=DIRECTION($,(-4.85722573273495E-017,-2.69576028166796E-015,1.));
#499=DIRECTION($,(1.,5.55111512312574E-017,4.85722573273496E-017));
#500=CARTESIAN_POINT('',(0.,0.,0.));
#501=CARTESIAN_POINT('Origin',(132.5,3.75000000000002,0.));
#502=CARTESIAN_POINT('',(132.5,7.50000000000003,0.));
#503=CARTESIAN_POINT('Origin',(132.5,0.,0.));
#504=CARTESIAN_POINT('Origin',(-1.73472347597681E-016,2.70000000765156,
0.));
#505=CARTESIAN_POINT('',(-3.46944695195361E-016,5.40000001530313,0.));
#506=CARTESIAN_POINT('Origin',(0.,0.,0.));
#507=CARTESIAN_POINT('Origin',(0.217429201619712,0.,0.));
#508=CARTESIAN_POINT('',(0.434858403239422,5.40000001530313,0.));
#509=CARTESIAN_POINT('Origin',(0.434858403239424,0.,0.));
#510=CARTESIAN_POINT('Origin',(0.448635571915528,0.,0.));
#511=CARTESIAN_POINT('',(0.462412740591622,5.29716582833583,0.));
#512=CARTESIAN_POINT('Origin',(0.462412740591613,0.,0.));
#513=CARTESIAN_POINT('Origin',(3.3999059859406,0.,0.));
#514=CARTESIAN_POINT('',(3.3999059859406,7.50000000000003,0.));
#515=CARTESIAN_POINT('Origin',(3.3999059859406,0.,0.));
#516=CARTESIAN_POINT('Origin',(67.9499529929703,0.,0.));
#517=CARTESIAN_POINT('',(0.,0.,0.));
#518=CARTESIAN_POINT('Origin',(3.48194591318807,0.,0.));
#519=CARTESIAN_POINT('',(3.50063019899855,5.45,0.));
#520=CARTESIAN_POINT('Origin',(3.50063019899855,0.,0.));
#521=CARTESIAN_POINT('',(3.4632616273776,5.31053859210434,0.));
#522=CARTESIAN_POINT('Origin',(3.4632616273776,0.,0.));
#523=CARTESIAN_POINT('Origin',(4.00031509949927,0.,0.));
#524=CARTESIAN_POINT('',(4.5,5.45,0.));
#525=CARTESIAN_POINT('Origin',(4.5,0.,0.));
#526=CARTESIAN_POINT('Origin',(4.5,3.97500000000001,0.));
#527=CARTESIAN_POINT('',(4.5,2.50000000000002,0.));
#528=CARTESIAN_POINT('Origin',(4.5,0.,0.));
#529=CARTESIAN_POINT('Origin',(6.825,0.,0.));
#530=CARTESIAN_POINT('',(9.15,2.50000000000002,0.));
#531=CARTESIAN_POINT('Origin',(9.15,0.,0.));
#532=CARTESIAN_POINT('Origin',(9.325,0.,0.));
#533=CARTESIAN_POINT('',(9.5,2.15000000000002,0.));
#534=CARTESIAN_POINT('Origin',(9.5,0.,0.));
#535=CARTESIAN_POINT('Origin',(9.5,1.61250000000001,0.));
#536=CARTESIAN_POINT('',(9.5,1.075,0.));
#537=CARTESIAN_POINT('Origin',(9.5,0.,0.));
#538=CARTESIAN_POINT('Origin',(6.60000000000002,0.,0.));
#539=CARTESIAN_POINT('',(3.70000000000003,1.075,0.));
#540=CARTESIAN_POINT('Origin',(3.70000000000003,0.,0.));
#541=CARTESIAN_POINT('Origin',(3.70000000000003,1.0125,0.));
#542=CARTESIAN_POINT('',(3.70000000000003,0.95,0.));
#543=CARTESIAN_POINT('Origin',(3.70000000000003,0.,0.));
#544=CARTESIAN_POINT('Origin',(5.55000000000001,0.,0.));
#545=CARTESIAN_POINT('',(7.39999999999999,0.95,0.));
#546=CARTESIAN_POINT('Origin',(7.39999999999999,0.,0.));
#547=CARTESIAN_POINT('Origin',(7.54999999999999,0.,0.));
#548=CARTESIAN_POINT('',(7.7,0.650000000000005,0.));
#549=CARTESIAN_POINT('Origin',(7.7,0.,0.));
#550=CARTESIAN_POINT('Origin',(7.7,0.325000000000003,0.));
#551=CARTESIAN_POINT('Origin',(3.69778549322349E-031,3.75,0.));
#552=CARTESIAN_POINT('',(7.39557098644699E-031,7.5,0.));
#553=CARTESIAN_POINT('Origin',(0.,0.,0.));
#554=CARTESIAN_POINT('Origin',(0.25,0.,0.));
#555=CARTESIAN_POINT('',(0.5,7.5,0.));
#556=CARTESIAN_POINT('Origin',(0.5,0.,0.));
#557=CARTESIAN_POINT('Origin',(0.49999999999998,0.,0.));
#558=CARTESIAN_POINT('',(0.,0.,0.));
#559=CARTESIAN_POINT('Origin',(-1.38777878078145E-016,1.5,0.));
#560=CARTESIAN_POINT('',(-5.55111512312578E-016,3.,0.));
#561=CARTESIAN_POINT('Origin',(0.,0.,0.));
#562=CARTESIAN_POINT('Origin',(51.5,0.,0.));
#563=CARTESIAN_POINT('',(103.,3.00000000000001,0.));
#564=CARTESIAN_POINT('Origin',(103.,0.,0.));
#565=CARTESIAN_POINT('Origin',(103.,1.50000000000001,0.));
#566=CARTESIAN_POINT('',(0.,0.,0.));
#567=CARTESIAN_POINT('Origin',(5.35782974626967E-016,-1.25,0.));
#568=CARTESIAN_POINT('',(1.07156594925393E-015,-2.5,0.));
#569=CARTESIAN_POINT('Origin',(1.11022302462516E-015,0.,0.));
#570=CARTESIAN_POINT('Origin',(-2.35,0.,0.));
#571=CARTESIAN_POINT('',(-4.7,-2.5,0.));
#572=CARTESIAN_POINT('Origin',(-4.7,0.,0.));
#573=CARTESIAN_POINT('Origin',(-4.85,0.,0.));
#574=CARTESIAN_POINT('',(-5.,-2.2,0.));
#575=CARTESIAN_POINT('Origin',(-5.,0.,0.));
#576=CARTESIAN_POINT('Origin',(-5.,-1.1,0.));
#577=CARTESIAN_POINT('',(0.,0.,0.));
#578=CARTESIAN_POINT($,(0.,0.,0.));
#579=CARTESIAN_POINT($,(132.5,0.,0.));
#580=CARTESIAN_POINT($,(-103.,2.84841594755392E-015,1.7853532597517E-016));
#581=CARTESIAN_POINT($,(-103.,2.50147125235856E-015,1.78535325975169E-016));
#582=UNCERTAINTY_MEASURE_WITH_UNIT(LENGTH_MEASURE(0.01),#592,
'DISTANCE_ACCURACY_VALUE',
'Maximum model space distance between geometric entities at asserted c
onnectivities');
#583=UNCERTAINTY_MEASURE_WITH_UNIT(LENGTH_MEASURE(0.01),#592,
'DISTANCE_ACCURACY_VALUE',
'Maximum model space distance between geometric entities at asserted c
onnectivities');
#584=UNCERTAINTY_MEASURE_WITH_UNIT(LENGTH_MEASURE(0.01),#592,
'DISTANCE_ACCURACY_VALUE',
'Maximum model space distance between geometric entities at asserted c
onnectivities');
#585=UNCERTAINTY_MEASURE_WITH_UNIT(LENGTH_MEASURE(0.01),#592,
'DISTANCE_ACCURACY_VALUE',
'Maximum model space distance between geometric entities at asserted c
onnectivities');
#586=UNCERTAINTY_MEASURE_WITH_UNIT(LENGTH_MEASURE(0.01),#592,
'DISTANCE_ACCURACY_VALUE',
'Maximum model space distance between geometric entities at asserted c
onnectivities');
#587=(
GEOMETRIC_REPRESENTATION_CONTEXT(3)
GLOBAL_UNCERTAINTY_ASSIGNED_CONTEXT((#582))
GLOBAL_UNIT_ASSIGNED_CONTEXT((#592,#595,#593))
REPRESENTATION_CONTEXT('','3D')
);
#588=(
GEOMETRIC_REPRESENTATION_CONTEXT(3)
GLOBAL_UNCERTAINTY_ASSIGNED_CONTEXT((#583))
GLOBAL_UNIT_ASSIGNED_CONTEXT((#592,#595,#593))
REPRESENTATION_CONTEXT('','3D')
);
#589=(
GEOMETRIC_REPRESENTATION_CONTEXT(3)
GLOBAL_UNCERTAINTY_ASSIGNED_CONTEXT((#584))
GLOBAL_UNIT_ASSIGNED_CONTEXT((#592,#595,#593))
REPRESENTATION_CONTEXT('','3D')
);
#590=(
GEOMETRIC_REPRESENTATION_CONTEXT(3)
GLOBAL_UNCERTAINTY_ASSIGNED_CONTEXT((#585))
GLOBAL_UNIT_ASSIGNED_CONTEXT((#592,#595,#593))
REPRESENTATION_CONTEXT('','3D')
);
#591=(
GEOMETRIC_REPRESENTATION_CONTEXT(3)
GLOBAL_UNCERTAINTY_ASSIGNED_CONTEXT((#586))
GLOBAL_UNIT_ASSIGNED_CONTEXT((#592,#595,#593))
REPRESENTATION_CONTEXT('','3D')
);
#592=(
LENGTH_UNIT()
NAMED_UNIT(*)
SI_UNIT(.MILLI.,.METRE.)
);
#593=(
NAMED_UNIT(*)
SI_UNIT($,.STERADIAN.)
SOLID_ANGLE_UNIT()
);
#594=DIMENSIONAL_EXPONENTS(0.,0.,0.,0.,0.,0.,0.);
#595=(
CONVERSION_BASED_UNIT('degree',#597)
NAMED_UNIT(#594)
PLANE_ANGLE_UNIT()
);
#596=(
NAMED_UNIT(*)
PLANE_ANGLE_UNIT()
SI_UNIT($,.RADIAN.)
);
#597=PLANE_ANGLE_MEASURE_WITH_UNIT(PLANE_ANGLE_MEASURE(0.01745329252),#596);
#598=SHAPE_DEFINITION_REPRESENTATION(#603,#612);
#599=SHAPE_DEFINITION_REPRESENTATION(#604,#613);
#600=SHAPE_DEFINITION_REPRESENTATION(#605,#614);
#601=SHAPE_DEFINITION_REPRESENTATION(#606,#615);
#602=SHAPE_DEFINITION_REPRESENTATION(#607,#616);
#603=PRODUCT_DEFINITION_SHAPE('',$,#618);
#604=PRODUCT_DEFINITION_SHAPE('',$,#619);
#605=PRODUCT_DEFINITION_SHAPE('',$,#620);
#606=PRODUCT_DEFINITION_SHAPE('',$,#621);
#607=PRODUCT_DEFINITION_SHAPE('',$,#622);
#608=PRODUCT_DEFINITION_SHAPE($,$,#22);
#609=PRODUCT_DEFINITION_SHAPE($,$,#23);
#610=PRODUCT_DEFINITION_SHAPE($,$,#24);
#611=PRODUCT_DEFINITION_SHAPE($,$,#25);
#612=SHAPE_REPRESENTATION('',(#323),#587);
#613=SHAPE_REPRESENTATION('',(#335),#588);
#614=SHAPE_REPRESENTATION('',(#363),#589);
#615=SHAPE_REPRESENTATION('',(#369),#590);
#616=SHAPE_REPRESENTATION('',(#377,#378,#379,#380,#381),#591);
#617=PRODUCT_DEFINITION_CONTEXT('3D Mechanical Parts',#629,'design');
#618=PRODUCT_DEFINITION('Zylinder_15','Zylinder_15',#623,#617);
#619=PRODUCT_DEFINITION('Gewindeanschlu\X\DF_V0_15_VE',
'Gewindeanschlu\X\DF_V0_15_VE',#624,#617);
#620=PRODUCT_DEFINITION('Kolbenstange_06','Kolbenstange_06',#625,#617);
#621=PRODUCT_DEFINITION('Gewindeanschlu\X\DF_V0','Gewindeanschlu\X\DF_
V0',#626,#617);
#622=PRODUCT_DEFINITION('V0V0XA6-100-240--004-000N',
'V0V0XA6-100-240--004-000N',#627,#617);
#623=PRODUCT_DEFINITION_FORMATION('',$,#631);
#624=PRODUCT_DEFINITION_FORMATION('',$,#632);
#625=PRODUCT_DEFINITION_FORMATION('',$,#633);
#626=PRODUCT_DEFINITION_FORMATION('',$,#634);
#627=PRODUCT_DEFINITION_FORMATION('',$,#635);
#628=APPLICATION_PROTOCOL_DEFINITION('international standard',
'automotive_design',2009,#629);
#629=APPLICATION_CONTEXT(
'Core Data for Automotive Mechanical Design Process');
#630=PRODUCT_CONTEXT('3D Mechanical Parts',#629,'mechanical');
#631=PRODUCT('Zylinder_15','Zylinder_15',$,(#630));
#632=PRODUCT('Gewindeanschlu\X\DF_V0_15_VE','Gewindeanschlu\X\DF_V0_15
_VE',$,(#630));
#633=PRODUCT('Kolbenstange_06','Kolbenstange_06',$,(#630));
#634=PRODUCT('Gewindeanschlu\X\DF_V0','Gewindeanschlu\X\DF_V0',$,(#630));
#635=PRODUCT('V0V0XA6-100-240--004-000N','V0V0XA6-100-240--004-000N',$,
(#630));
#636=PRESENTATION_STYLE_ASSIGNMENT((#640));
#637=PRESENTATION_STYLE_ASSIGNMENT((#641));
#638=PRESENTATION_STYLE_ASSIGNMENT((#642));
#639=PRESENTATION_STYLE_ASSIGNMENT((#643));
#640=SURFACE_STYLE_USAGE(.BOTH.,#644);
#641=SURFACE_STYLE_USAGE(.BOTH.,#645);
#642=SURFACE_STYLE_USAGE(.BOTH.,#646);
#643=SURFACE_STYLE_USAGE(.BOTH.,#647);
#644=SURFACE_SIDE_STYLE($,(#648));
#645=SURFACE_SIDE_STYLE($,(#649));
#646=SURFACE_SIDE_STYLE($,(#650));
#647=SURFACE_SIDE_STYLE($,(#651));
#648=SURFACE_STYLE_FILL_AREA(#652);
#649=SURFACE_STYLE_FILL_AREA(#653);
#650=SURFACE_STYLE_FILL_AREA(#654);
#651=SURFACE_STYLE_FILL_AREA(#655);
#652=FILL_AREA_STYLE($,(#656));
#653=FILL_AREA_STYLE($,(#657));
#654=FILL_AREA_STYLE($,(#658));
#655=FILL_AREA_STYLE($,(#659));
#656=FILL_AREA_STYLE_COLOUR($,#660);
#657=FILL_AREA_STYLE_COLOUR($,#661);
#658=FILL_AREA_STYLE_COLOUR($,#662);
#659=FILL_AREA_STYLE_COLOUR($,#663);
#660=COLOUR_RGB('',0.752941176470588,0.752941176470588,0.752941176470588);
#661=COLOUR_RGB('',0.305882352941176,0.305882352941176,0.305882352941176);
#662=COLOUR_RGB('',0.949019607843137,0.925490196078431,0.933333333333333);
#663=COLOUR_RGB('',0.67843137254902,0.768627450980392,0.811764705882353);
ENDSEC;
END-ISO-10303-21;
