ISO-10303-21;
HEADER;
/* Generated by software containing ST-Developer
 * from STEP Tools, Inc. (www.steptools.com) 
 */

FILE_DESCRIPTION(
/* description */ (''),
/* implementation_level */ '2;1');

FILE_NAME(
/* name */ 
'X:\\3D-Zeichnungen\\Zusammenbau-Zeichungen\\Kundenzeichnungen\\Daempf
er\\V0V0XA6-050-140--004-000N\\Step-Datei\\V0V0XA6-050-140--004-000N.s
tp',
/* time_stamp */ '2015-06-23T11:38:56+02:00',
/* author */ ('CADNEU'),
/* organization */ (''),
/* preprocessor_version */ 'ST-DEVELOPER v15.2',
/* originating_system */ 'Autodesk Inventor 2014',
/* authorisation */ '');

FILE_SCHEMA (('AUTOMOTIVE_DESIGN { 1 0 10303 214 3 1 1 }'));
ENDSEC;

DATA;
#10=MECHANICAL_DESIGN_GEOMETRIC_PRESENTATION_REPRESENTATION('',(#219,#220,
#221,#222,#223,#224,#225,#226,#227,#228,#229,#230,#231),#487);
#11=ITEM_DEFINED_TRANSFORMATION($,$,#262,#307);
#12=ITEM_DEFINED_TRANSFORMATION($,$,#274,#308);
#13=ITEM_DEFINED_TRANSFORMATION($,$,#280,#309);
#14=ITEM_DEFINED_TRANSFORMATION($,$,#288,#310);
#15=(
REPRESENTATION_RELATIONSHIP($,$,#508,#512)
REPRESENTATION_RELATIONSHIP_WITH_TRANSFORMATION(#11)
SHAPE_REPRESENTATION_RELATIONSHIP()
);
#16=(
REPRESENTATION_RELATIONSHIP($,$,#509,#512)
REPRESENTATION_RELATIONSHIP_WITH_TRANSFORMATION(#12)
SHAPE_REPRESENTATION_RELATIONSHIP()
);
#17=(
REPRESENTATION_RELATIONSHIP($,$,#510,#512)
REPRESENTATION_RELATIONSHIP_WITH_TRANSFORMATION(#13)
SHAPE_REPRESENTATION_RELATIONSHIP()
);
#18=(
REPRESENTATION_RELATIONSHIP($,$,#511,#512)
REPRESENTATION_RELATIONSHIP_WITH_TRANSFORMATION(#14)
SHAPE_REPRESENTATION_RELATIONSHIP()
);
#19=CONTEXT_DEPENDENT_SHAPE_REPRESENTATION(#15,#504);
#20=CONTEXT_DEPENDENT_SHAPE_REPRESENTATION(#16,#505);
#21=CONTEXT_DEPENDENT_SHAPE_REPRESENTATION(#17,#506);
#22=CONTEXT_DEPENDENT_SHAPE_REPRESENTATION(#18,#507);
#23=NEXT_ASSEMBLY_USAGE_OCCURRENCE('Zylinder_15:1',$,$,#518,#514,$);
#24=NEXT_ASSEMBLY_USAGE_OCCURRENCE('Kolbenstange_06:1',$,$,#518,#515,$);
#25=NEXT_ASSEMBLY_USAGE_OCCURRENCE('Gewindeanschlu\X\DF_V0:1',$,$,#518,
#516,$);
#26=NEXT_ASSEMBLY_USAGE_OCCURRENCE('Gewindeanschlu\X\DF_V0_15:1',$,$,#518,
#517,$);
#27=SHAPE_REPRESENTATION_RELATIONSHIP('SRR','None',#508,#31);
#28=SHAPE_REPRESENTATION_RELATIONSHIP('SRR','None',#509,#32);
#29=SHAPE_REPRESENTATION_RELATIONSHIP('SRR','None',#510,#33);
#30=SHAPE_REPRESENTATION_RELATIONSHIP('SRR','None',#511,#34);
#31=ADVANCED_BREP_SHAPE_REPRESENTATION($,(#258),#482);
#32=ADVANCED_BREP_SHAPE_REPRESENTATION($,(#259),#483);
#33=ADVANCED_BREP_SHAPE_REPRESENTATION($,(#260),#484);
#34=ADVANCED_BREP_SHAPE_REPRESENTATION($,(#261),#485);
#35=TOROIDAL_SURFACE('',#269,4.44000004000701,3.05999995999292);
#36=TOROIDAL_SURFACE('',#293,4.40000100913445,3.10000000000002);
#37=CONICAL_SURFACE('',#267,5.34858290651635,75.000000000004);
#38=CONICAL_SURFACE('',#285,2.35,45.);
#39=CONICAL_SURFACE('',#295,5.38364501008995,74.6938610259098);
#40=CONICAL_SURFACE('',#303,2.325,45.0000000000004);
#41=FACE_BOUND('',#86,.T.);
#42=FACE_BOUND('',#88,.T.);
#43=FACE_BOUND('',#90,.T.);
#44=FACE_BOUND('',#92,.T.);
#45=FACE_BOUND('',#96,.T.);
#46=FACE_BOUND('',#100,.T.);
#47=FACE_BOUND('',#102,.T.);
#48=FACE_BOUND('',#106,.T.);
#49=FACE_BOUND('',#108,.T.);
#50=FACE_BOUND('',#110,.T.);
#51=FACE_BOUND('',#112,.T.);
#52=FACE_BOUND('',#113,.T.);
#53=FACE_BOUND('',#114,.T.);
#54=FACE_BOUND('',#116,.T.);
#55=FACE_BOUND('',#118,.T.);
#56=CYLINDRICAL_SURFACE('',#265,5.40000000000001);
#57=CYLINDRICAL_SURFACE('',#271,7.49999998469688);
#58=CYLINDRICAL_SURFACE('',#277,3.);
#59=CYLINDRICAL_SURFACE('',#283,2.5);
#60=CYLINDRICAL_SURFACE('',#291,7.5);
#61=CYLINDRICAL_SURFACE('',#297,5.44999892841209);
#62=CYLINDRICAL_SURFACE('',#301,2.5);
#63=FACE_OUTER_BOUND('',#84,.T.);
#64=FACE_OUTER_BOUND('',#85,.T.);
#65=FACE_OUTER_BOUND('',#87,.T.);
#66=FACE_OUTER_BOUND('',#89,.T.);
#67=FACE_OUTER_BOUND('',#91,.T.);
#68=FACE_OUTER_BOUND('',#93,.T.);
#69=FACE_OUTER_BOUND('',#94,.T.);
#70=FACE_OUTER_BOUND('',#95,.T.);
#71=FACE_OUTER_BOUND('',#97,.T.);
#72=FACE_OUTER_BOUND('',#98,.T.);
#73=FACE_OUTER_BOUND('',#99,.T.);
#74=FACE_OUTER_BOUND('',#101,.T.);
#75=FACE_OUTER_BOUND('',#103,.T.);
#76=FACE_OUTER_BOUND('',#104,.T.);
#77=FACE_OUTER_BOUND('',#105,.T.);
#78=FACE_OUTER_BOUND('',#107,.T.);
#79=FACE_OUTER_BOUND('',#109,.T.);
#80=FACE_OUTER_BOUND('',#111,.T.);
#81=FACE_OUTER_BOUND('',#115,.T.);
#82=FACE_OUTER_BOUND('',#117,.T.);
#83=FACE_OUTER_BOUND('',#119,.T.);
#84=EDGE_LOOP('',(#174));
#85=EDGE_LOOP('',(#175));
#86=EDGE_LOOP('',(#176));
#87=EDGE_LOOP('',(#177));
#88=EDGE_LOOP('',(#178));
#89=EDGE_LOOP('',(#179));
#90=EDGE_LOOP('',(#180));
#91=EDGE_LOOP('',(#181));
#92=EDGE_LOOP('',(#182));
#93=EDGE_LOOP('',(#183));
#94=EDGE_LOOP('',(#184));
#95=EDGE_LOOP('',(#185));
#96=EDGE_LOOP('',(#186));
#97=EDGE_LOOP('',(#187));
#98=EDGE_LOOP('',(#188));
#99=EDGE_LOOP('',(#189));
#100=EDGE_LOOP('',(#190));
#101=EDGE_LOOP('',(#191));
#102=EDGE_LOOP('',(#192));
#103=EDGE_LOOP('',(#193));
#104=EDGE_LOOP('',(#194));
#105=EDGE_LOOP('',(#195));
#106=EDGE_LOOP('',(#196));
#107=EDGE_LOOP('',(#197));
#108=EDGE_LOOP('',(#198));
#109=EDGE_LOOP('',(#199));
#110=EDGE_LOOP('',(#200));
#111=EDGE_LOOP('',(#201));
#112=EDGE_LOOP('',(#202));
#113=EDGE_LOOP('',(#203));
#114=EDGE_LOOP('',(#204));
#115=EDGE_LOOP('',(#205));
#116=EDGE_LOOP('',(#206));
#117=EDGE_LOOP('',(#207));
#118=EDGE_LOOP('',(#208));
#119=EDGE_LOOP('',(#209));
#120=CIRCLE('',#264,5.40000000000001);
#121=CIRCLE('',#266,5.40000000000001);
#122=CIRCLE('',#268,5.29716581303269);
#123=CIRCLE('',#270,7.49999998469688);
#124=CIRCLE('',#272,7.49999998469689);
#125=CIRCLE('',#276,3.);
#126=CIRCLE('',#278,3.00000000000001);
#127=CIRCLE('',#282,2.5);
#128=CIRCLE('',#284,2.5);
#129=CIRCLE('',#286,2.2);
#130=CIRCLE('',#290,7.5);
#131=CIRCLE('',#292,7.5);
#132=CIRCLE('',#294,5.31729109176781);
#133=CIRCLE('',#296,5.44999892841209);
#134=CIRCLE('',#298,5.44999892841209);
#135=CIRCLE('',#300,2.5);
#136=CIRCLE('',#302,2.5);
#137=CIRCLE('',#304,2.15);
#138=VERTEX_POINT('',#411);
#139=VERTEX_POINT('',#414);
#140=VERTEX_POINT('',#417);
#141=VERTEX_POINT('',#420);
#142=VERTEX_POINT('',#423);
#143=VERTEX_POINT('',#428);
#144=VERTEX_POINT('',#431);
#145=VERTEX_POINT('',#436);
#146=VERTEX_POINT('',#439);
#147=VERTEX_POINT('',#442);
#148=VERTEX_POINT('',#447);
#149=VERTEX_POINT('',#450);
#150=VERTEX_POINT('',#453);
#151=VERTEX_POINT('',#456);
#152=VERTEX_POINT('',#459);
#153=VERTEX_POINT('',#462);
#154=VERTEX_POINT('',#465);
#155=VERTEX_POINT('',#468);
#156=EDGE_CURVE('',#138,#138,#120,.T.);
#157=EDGE_CURVE('',#139,#139,#121,.T.);
#158=EDGE_CURVE('',#140,#140,#122,.T.);
#159=EDGE_CURVE('',#141,#141,#123,.T.);
#160=EDGE_CURVE('',#142,#142,#124,.T.);
#161=EDGE_CURVE('',#143,#143,#125,.T.);
#162=EDGE_CURVE('',#144,#144,#126,.T.);
#163=EDGE_CURVE('',#145,#145,#127,.T.);
#164=EDGE_CURVE('',#146,#146,#128,.T.);
#165=EDGE_CURVE('',#147,#147,#129,.T.);
#166=EDGE_CURVE('',#148,#148,#130,.T.);
#167=EDGE_CURVE('',#149,#149,#131,.T.);
#168=EDGE_CURVE('',#150,#150,#132,.T.);
#169=EDGE_CURVE('',#151,#151,#133,.T.);
#170=EDGE_CURVE('',#152,#152,#134,.T.);
#171=EDGE_CURVE('',#153,#153,#135,.T.);
#172=EDGE_CURVE('',#154,#154,#136,.T.);
#173=EDGE_CURVE('',#155,#155,#137,.T.);
#174=ORIENTED_EDGE('',*,*,#156,.F.);
#175=ORIENTED_EDGE('',*,*,#157,.F.);
#176=ORIENTED_EDGE('',*,*,#156,.T.);
#177=ORIENTED_EDGE('',*,*,#158,.F.);
#178=ORIENTED_EDGE('',*,*,#157,.T.);
#179=ORIENTED_EDGE('',*,*,#159,.F.);
#180=ORIENTED_EDGE('',*,*,#158,.T.);
#181=ORIENTED_EDGE('',*,*,#159,.T.);
#182=ORIENTED_EDGE('',*,*,#160,.F.);
#183=ORIENTED_EDGE('',*,*,#160,.T.);
#184=ORIENTED_EDGE('',*,*,#161,.F.);
#185=ORIENTED_EDGE('',*,*,#162,.F.);
#186=ORIENTED_EDGE('',*,*,#161,.T.);
#187=ORIENTED_EDGE('',*,*,#162,.T.);
#188=ORIENTED_EDGE('',*,*,#163,.F.);
#189=ORIENTED_EDGE('',*,*,#164,.F.);
#190=ORIENTED_EDGE('',*,*,#163,.T.);
#191=ORIENTED_EDGE('',*,*,#165,.F.);
#192=ORIENTED_EDGE('',*,*,#164,.T.);
#193=ORIENTED_EDGE('',*,*,#165,.T.);
#194=ORIENTED_EDGE('',*,*,#166,.F.);
#195=ORIENTED_EDGE('',*,*,#167,.F.);
#196=ORIENTED_EDGE('',*,*,#166,.T.);
#197=ORIENTED_EDGE('',*,*,#168,.F.);
#198=ORIENTED_EDGE('',*,*,#167,.T.);
#199=ORIENTED_EDGE('',*,*,#169,.F.);
#200=ORIENTED_EDGE('',*,*,#168,.T.);
#201=ORIENTED_EDGE('',*,*,#170,.F.);
#202=ORIENTED_EDGE('',*,*,#169,.T.);
#203=ORIENTED_EDGE('',*,*,#171,.F.);
#204=ORIENTED_EDGE('',*,*,#170,.T.);
#205=ORIENTED_EDGE('',*,*,#172,.F.);
#206=ORIENTED_EDGE('',*,*,#171,.T.);
#207=ORIENTED_EDGE('',*,*,#173,.F.);
#208=ORIENTED_EDGE('',*,*,#172,.T.);
#209=ORIENTED_EDGE('',*,*,#173,.T.);
#210=PLANE('',#263);
#211=PLANE('',#273);
#212=PLANE('',#275);
#213=PLANE('',#279);
#214=PLANE('',#281);
#215=PLANE('',#287);
#216=PLANE('',#289);
#217=PLANE('',#299);
#218=PLANE('',#305);
#219=STYLED_ITEM('',(#538),#232);
#220=STYLED_ITEM('',(#538),#233);
#221=STYLED_ITEM('',(#538),#234);
#222=STYLED_ITEM('',(#537),#258);
#223=STYLED_ITEM('',(#537),#259);
#224=STYLED_ITEM('',(#537),#260);
#225=STYLED_ITEM('',(#538),#248);
#226=STYLED_ITEM('',(#538),#249);
#227=STYLED_ITEM('',(#538),#250);
#228=STYLED_ITEM('',(#538),#251);
#229=STYLED_ITEM('',(#538),#252);
#230=STYLED_ITEM('',(#538),#253);
#231=STYLED_ITEM('',(#537),#261);
#232=ADVANCED_FACE('',(#63),#210,.T.);
#233=ADVANCED_FACE('',(#64,#41),#56,.T.);
#234=ADVANCED_FACE('',(#65,#42),#37,.T.);
#235=ADVANCED_FACE('',(#66,#43),#35,.T.);
#236=ADVANCED_FACE('',(#67,#44),#57,.T.);
#237=ADVANCED_FACE('',(#68),#211,.T.);
#238=ADVANCED_FACE('',(#69),#212,.T.);
#239=ADVANCED_FACE('',(#70,#45),#58,.T.);
#240=ADVANCED_FACE('',(#71),#213,.T.);
#241=ADVANCED_FACE('',(#72),#214,.T.);
#242=ADVANCED_FACE('',(#73,#46),#59,.T.);
#243=ADVANCED_FACE('',(#74,#47),#38,.T.);
#244=ADVANCED_FACE('',(#75),#215,.T.);
#245=ADVANCED_FACE('',(#76),#216,.T.);
#246=ADVANCED_FACE('',(#77,#48),#60,.T.);
#247=ADVANCED_FACE('',(#78,#49),#36,.T.);
#248=ADVANCED_FACE('',(#79,#50),#39,.T.);
#249=ADVANCED_FACE('',(#80,#51),#61,.T.);
#250=ADVANCED_FACE('',(#52,#53),#217,.T.);
#251=ADVANCED_FACE('',(#81,#54),#62,.T.);
#252=ADVANCED_FACE('',(#82,#55),#40,.T.);
#253=ADVANCED_FACE('',(#83),#218,.T.);
#254=CLOSED_SHELL('',(#232,#233,#234,#235,#236,#237));
#255=CLOSED_SHELL('',(#238,#239,#240));
#256=CLOSED_SHELL('',(#241,#242,#243,#244));
#257=CLOSED_SHELL('',(#245,#246,#247,#248,#249,#250,#251,#252,#253));
#258=MANIFOLD_SOLID_BREP('Volumenk\X\F6rper1',#254);
#259=MANIFOLD_SOLID_BREP('Volumenk\X\F6rper2',#255);
#260=MANIFOLD_SOLID_BREP('Volumenk\X\F6rper2',#256);
#261=MANIFOLD_SOLID_BREP('Volumenk\X\F6rper1',#257);
#262=AXIS2_PLACEMENT_3D('placement',#409,#311,#312);
#263=AXIS2_PLACEMENT_3D('',#410,#313,#314);
#264=AXIS2_PLACEMENT_3D('',#412,#315,#316);
#265=AXIS2_PLACEMENT_3D('',#413,#317,#318);
#266=AXIS2_PLACEMENT_3D('',#415,#319,#320);
#267=AXIS2_PLACEMENT_3D('',#416,#321,#322);
#268=AXIS2_PLACEMENT_3D('',#418,#323,#324);
#269=AXIS2_PLACEMENT_3D('',#419,#325,#326);
#270=AXIS2_PLACEMENT_3D('',#421,#327,#328);
#271=AXIS2_PLACEMENT_3D('',#422,#329,#330);
#272=AXIS2_PLACEMENT_3D('',#424,#331,#332);
#273=AXIS2_PLACEMENT_3D('',#425,#333,#334);
#274=AXIS2_PLACEMENT_3D('placement',#426,#335,#336);
#275=AXIS2_PLACEMENT_3D('',#427,#337,#338);
#276=AXIS2_PLACEMENT_3D('',#429,#339,#340);
#277=AXIS2_PLACEMENT_3D('',#430,#341,#342);
#278=AXIS2_PLACEMENT_3D('',#432,#343,#344);
#279=AXIS2_PLACEMENT_3D('',#433,#345,#346);
#280=AXIS2_PLACEMENT_3D('placement',#434,#347,#348);
#281=AXIS2_PLACEMENT_3D('',#435,#349,#350);
#282=AXIS2_PLACEMENT_3D('',#437,#351,#352);
#283=AXIS2_PLACEMENT_3D('',#438,#353,#354);
#284=AXIS2_PLACEMENT_3D('',#440,#355,#356);
#285=AXIS2_PLACEMENT_3D('',#441,#357,#358);
#286=AXIS2_PLACEMENT_3D('',#443,#359,#360);
#287=AXIS2_PLACEMENT_3D('',#444,#361,#362);
#288=AXIS2_PLACEMENT_3D('placement',#445,#363,#364);
#289=AXIS2_PLACEMENT_3D('',#446,#365,#366);
#290=AXIS2_PLACEMENT_3D('',#448,#367,#368);
#291=AXIS2_PLACEMENT_3D('',#449,#369,#370);
#292=AXIS2_PLACEMENT_3D('',#451,#371,#372);
#293=AXIS2_PLACEMENT_3D('',#452,#373,#374);
#294=AXIS2_PLACEMENT_3D('',#454,#375,#376);
#295=AXIS2_PLACEMENT_3D('',#455,#377,#378);
#296=AXIS2_PLACEMENT_3D('',#457,#379,#380);
#297=AXIS2_PLACEMENT_3D('',#458,#381,#382);
#298=AXIS2_PLACEMENT_3D('',#460,#383,#384);
#299=AXIS2_PLACEMENT_3D('',#461,#385,#386);
#300=AXIS2_PLACEMENT_3D('',#463,#387,#388);
#301=AXIS2_PLACEMENT_3D('',#464,#389,#390);
#302=AXIS2_PLACEMENT_3D('',#466,#391,#392);
#303=AXIS2_PLACEMENT_3D('',#467,#393,#394);
#304=AXIS2_PLACEMENT_3D('',#469,#395,#396);
#305=AXIS2_PLACEMENT_3D('',#470,#397,#398);
#306=AXIS2_PLACEMENT_3D('placement',#471,#399,#400);
#307=AXIS2_PLACEMENT_3D('',#472,#401,#402);
#308=AXIS2_PLACEMENT_3D('',#473,#403,#404);
#309=AXIS2_PLACEMENT_3D('',#474,#405,#406);
#310=AXIS2_PLACEMENT_3D('',#475,#407,#408);
#311=DIRECTION('axis',(0.,0.,1.));
#312=DIRECTION('refdir',(1.,0.,0.));
#313=DIRECTION('center_axis',(-1.,0.,0.));
#314=DIRECTION('ref_axis',(0.,0.,1.));
#315=DIRECTION('center_axis',(1.,0.,0.));
#316=DIRECTION('ref_axis',(0.,1.,0.));
#317=DIRECTION('center_axis',(1.,0.,0.));
#318=DIRECTION('ref_axis',(0.,1.,0.));
#319=DIRECTION('center_axis',(1.,0.,0.));
#320=DIRECTION('ref_axis',(0.,1.,0.));
#321=DIRECTION('center_axis',(-1.,0.,0.));
#322=DIRECTION('ref_axis',(0.,1.,0.));
#323=DIRECTION('center_axis',(1.,0.,0.));
#324=DIRECTION('ref_axis',(0.,1.,0.));
#325=DIRECTION('center_axis',(1.,0.,0.));
#326=DIRECTION('ref_axis',(0.,0.,-1.));
#327=DIRECTION('center_axis',(1.,0.,0.));
#328=DIRECTION('ref_axis',(0.,1.,0.));
#329=DIRECTION('center_axis',(1.,0.,0.));
#330=DIRECTION('ref_axis',(0.,1.,0.));
#331=DIRECTION('center_axis',(1.,0.,0.));
#332=DIRECTION('ref_axis',(0.,1.,0.));
#333=DIRECTION('center_axis',(1.,0.,0.));
#334=DIRECTION('ref_axis',(0.,0.,-1.));
#335=DIRECTION('axis',(0.,0.,1.));
#336=DIRECTION('refdir',(1.,0.,0.));
#337=DIRECTION('center_axis',(-1.,0.,0.));
#338=DIRECTION('ref_axis',(0.,0.,1.));
#339=DIRECTION('center_axis',(1.,0.,0.));
#340=DIRECTION('ref_axis',(0.,1.,0.));
#341=DIRECTION('center_axis',(1.,0.,0.));
#342=DIRECTION('ref_axis',(0.,1.,0.));
#343=DIRECTION('center_axis',(1.,0.,0.));
#344=DIRECTION('ref_axis',(0.,1.,0.));
#345=DIRECTION('center_axis',(1.,0.,0.));
#346=DIRECTION('ref_axis',(0.,0.,-1.));
#347=DIRECTION('axis',(0.,0.,1.));
#348=DIRECTION('refdir',(1.,0.,0.));
#349=DIRECTION('center_axis',(1.,0.,0.));
#350=DIRECTION('ref_axis',(0.,0.,-1.));
#351=DIRECTION('center_axis',(-1.,0.,0.));
#352=DIRECTION('ref_axis',(0.,-1.,0.));
#353=DIRECTION('center_axis',(-1.,0.,0.));
#354=DIRECTION('ref_axis',(0.,-1.,0.));
#355=DIRECTION('center_axis',(-1.,0.,0.));
#356=DIRECTION('ref_axis',(0.,-1.,0.));
#357=DIRECTION('center_axis',(1.,0.,0.));
#358=DIRECTION('ref_axis',(0.,-1.,0.));
#359=DIRECTION('center_axis',(-1.,0.,0.));
#360=DIRECTION('ref_axis',(0.,-1.,0.));
#361=DIRECTION('center_axis',(-1.,0.,0.));
#362=DIRECTION('ref_axis',(0.,0.,1.));
#363=DIRECTION('axis',(0.,0.,1.));
#364=DIRECTION('refdir',(1.,0.,0.));
#365=DIRECTION('center_axis',(-1.,0.,0.));
#366=DIRECTION('ref_axis',(0.,0.,1.));
#367=DIRECTION('center_axis',(1.,0.,0.));
#368=DIRECTION('ref_axis',(0.,1.,0.));
#369=DIRECTION('center_axis',(1.,0.,0.));
#370=DIRECTION('ref_axis',(0.,1.,0.));
#371=DIRECTION('center_axis',(1.,0.,0.));
#372=DIRECTION('ref_axis',(0.,1.,0.));
#373=DIRECTION('center_axis',(1.,0.,0.));
#374=DIRECTION('ref_axis',(0.,0.,-1.));
#375=DIRECTION('center_axis',(1.,0.,0.));
#376=DIRECTION('ref_axis',(0.,1.,0.));
#377=DIRECTION('center_axis',(1.,0.,0.));
#378=DIRECTION('ref_axis',(0.,1.,0.));
#379=DIRECTION('center_axis',(1.,0.,0.));
#380=DIRECTION('ref_axis',(0.,1.,0.));
#381=DIRECTION('center_axis',(1.,0.,0.));
#382=DIRECTION('ref_axis',(0.,1.,0.));
#383=DIRECTION('center_axis',(1.,0.,0.));
#384=DIRECTION('ref_axis',(0.,1.,0.));
#385=DIRECTION('center_axis',(1.,0.,0.));
#386=DIRECTION('ref_axis',(0.,0.,-1.));
#387=DIRECTION('center_axis',(1.,0.,0.));
#388=DIRECTION('ref_axis',(0.,1.,0.));
#389=DIRECTION('center_axis',(1.,0.,0.));
#390=DIRECTION('ref_axis',(0.,1.,0.));
#391=DIRECTION('center_axis',(1.,0.,0.));
#392=DIRECTION('ref_axis',(0.,1.,0.));
#393=DIRECTION('center_axis',(-1.,0.,0.));
#394=DIRECTION('ref_axis',(0.,1.,0.));
#395=DIRECTION('center_axis',(1.,0.,0.));
#396=DIRECTION('ref_axis',(0.,1.,0.));
#397=DIRECTION('center_axis',(1.,0.,0.));
#398=DIRECTION('ref_axis',(0.,0.,-1.));
#399=DIRECTION('axis',(0.,0.,1.));
#400=DIRECTION('refdir',(1.,0.,0.));
#401=DIRECTION('',(0.,0.,1.));
#402=DIRECTION('',(1.,0.,0.));
#403=DIRECTION('',(0.,0.,1.));
#404=DIRECTION('',(1.,0.,0.));
#405=DIRECTION('',(0.,0.,1.));
#406=DIRECTION('',(1.,0.,0.));
#407=DIRECTION('',(0.,0.,1.));
#408=DIRECTION('',(1.,0.,0.));
#409=CARTESIAN_POINT('',(0.,0.,0.));
#410=CARTESIAN_POINT('Origin',(-1.77809156287623E-015,2.7,0.));
#411=CARTESIAN_POINT('',(-3.55618312575245E-015,5.40000000000001,0.));
#412=CARTESIAN_POINT('Origin',(0.,0.,0.));
#413=CARTESIAN_POINT('Origin',(0.217276186012523,0.,0.));
#414=CARTESIAN_POINT('',(0.434552372025035,5.40000000000001,0.));
#415=CARTESIAN_POINT('Origin',(0.434552372025028,0.,0.));
#416=CARTESIAN_POINT('Origin',(0.448329540701131,0.,0.));
#417=CARTESIAN_POINT('',(0.462106709377231,5.29716581303269,0.));
#418=CARTESIAN_POINT('Origin',(0.462106709377235,0.,0.));
#419=CARTESIAN_POINT('Origin',(3.39959995919247,0.,0.));
#420=CARTESIAN_POINT('',(3.39929392797725,7.49999998469688,0.));
#421=CARTESIAN_POINT('Origin',(3.39929392797725,0.,0.));
#422=CARTESIAN_POINT('Origin',(42.9497999795962,0.,0.));
#423=CARTESIAN_POINT('',(82.5,7.49999998469689,0.));
#424=CARTESIAN_POINT('Origin',(82.5,0.,0.));
#425=CARTESIAN_POINT('Origin',(82.5,3.74999999234845,0.));
#426=CARTESIAN_POINT('',(0.,0.,0.));
#427=CARTESIAN_POINT('Origin',(-1.38777878078145E-016,1.5,0.));
#428=CARTESIAN_POINT('',(-5.55111512312578E-016,3.,0.));
#429=CARTESIAN_POINT('Origin',(0.,0.,0.));
#430=CARTESIAN_POINT('Origin',(26.5,0.,0.));
#431=CARTESIAN_POINT('',(53.,3.00000000000001,0.));
#432=CARTESIAN_POINT('Origin',(53.,0.,0.));
#433=CARTESIAN_POINT('Origin',(53.,1.5,0.));
#434=CARTESIAN_POINT('',(0.,0.,0.));
#435=CARTESIAN_POINT('Origin',(5.35782974626967E-016,-1.25,0.));
#436=CARTESIAN_POINT('',(1.07156594925393E-015,-2.5,0.));
#437=CARTESIAN_POINT('Origin',(1.11022302462516E-015,0.,0.));
#438=CARTESIAN_POINT('Origin',(-2.35,0.,0.));
#439=CARTESIAN_POINT('',(-4.7,-2.5,0.));
#440=CARTESIAN_POINT('Origin',(-4.7,0.,0.));
#441=CARTESIAN_POINT('Origin',(-4.85,0.,0.));
#442=CARTESIAN_POINT('',(-5.,-2.2,0.));
#443=CARTESIAN_POINT('Origin',(-5.,0.,0.));
#444=CARTESIAN_POINT('Origin',(-5.,-1.1,0.));
#445=CARTESIAN_POINT('',(0.,0.,0.));
#446=CARTESIAN_POINT('Origin',(7.71951946809679E-015,3.75,0.));
#447=CARTESIAN_POINT('',(1.54390389361936E-014,7.5,0.));
#448=CARTESIAN_POINT('Origin',(1.55431223447522E-014,0.,0.));
#449=CARTESIAN_POINT('Origin',(0.250000000000008,0.,0.));
#450=CARTESIAN_POINT('',(0.5,7.5,0.));
#451=CARTESIAN_POINT('Origin',(0.499999999999999,0.,0.));
#452=CARTESIAN_POINT('Origin',(0.502501326185908,0.,0.));
#453=CARTESIAN_POINT('',(3.46367996049735,5.31729109176781,0.));
#454=CARTESIAN_POINT('Origin',(3.46367996049735,0.,0.));
#455=CARTESIAN_POINT('Origin',(3.48183998024868,0.,0.));
#456=CARTESIAN_POINT('',(3.5,5.44999892841209,0.));
#457=CARTESIAN_POINT('Origin',(3.5,0.,0.));
#458=CARTESIAN_POINT('Origin',(4.,0.,0.));
#459=CARTESIAN_POINT('',(4.5,5.44999892841209,0.));
#460=CARTESIAN_POINT('Origin',(4.5,0.,0.));
#461=CARTESIAN_POINT('Origin',(4.5,3.97499946420604,0.));
#462=CARTESIAN_POINT('',(4.5,2.5,0.));
#463=CARTESIAN_POINT('Origin',(4.5,0.,0.));
#464=CARTESIAN_POINT('Origin',(6.825,0.,0.));
#465=CARTESIAN_POINT('',(9.15000000000001,2.5,0.));
#466=CARTESIAN_POINT('Origin',(9.15000000000001,0.,0.));
#467=CARTESIAN_POINT('Origin',(9.325,0.,0.));
#468=CARTESIAN_POINT('',(9.5,2.15,0.));
#469=CARTESIAN_POINT('Origin',(9.5,0.,0.));
#470=CARTESIAN_POINT('Origin',(9.5,1.075,0.));
#471=CARTESIAN_POINT('',(0.,0.,0.));
#472=CARTESIAN_POINT('',(0.,0.,0.));
#473=CARTESIAN_POINT('',(-53.,0.,0.));
#474=CARTESIAN_POINT('',(-53.,0.,0.));
#475=CARTESIAN_POINT('',(82.5,0.,0.));
#476=UNCERTAINTY_MEASURE_WITH_UNIT(LENGTH_MEASURE(0.01),#488,
'DISTANCE_ACCURACY_VALUE',
'Maximum model space distance between geometric entities at asserted c
onnectivities');
#477=UNCERTAINTY_MEASURE_WITH_UNIT(LENGTH_MEASURE(0.01),#488,
'DISTANCE_ACCURACY_VALUE',
'Maximum model space distance between geometric entities at asserted c
onnectivities');
#478=UNCERTAINTY_MEASURE_WITH_UNIT(LENGTH_MEASURE(0.01),#488,
'DISTANCE_ACCURACY_VALUE',
'Maximum model space distance between geometric entities at asserted c
onnectivities');
#479=UNCERTAINTY_MEASURE_WITH_UNIT(LENGTH_MEASURE(0.01),#488,
'DISTANCE_ACCURACY_VALUE',
'Maximum model space distance between geometric entities at asserted c
onnectivities');
#480=UNCERTAINTY_MEASURE_WITH_UNIT(LENGTH_MEASURE(0.01),#488,
'DISTANCE_ACCURACY_VALUE',
'Maximum model space distance between geometric entities at asserted c
onnectivities');
#481=UNCERTAINTY_MEASURE_WITH_UNIT(LENGTH_MEASURE(1.E-006),#488,
'DISTANCE_ACCURACY_VALUE',
'Maximum model space distance between geometric entities at asserted c
onnectivities');
#482=(
GEOMETRIC_REPRESENTATION_CONTEXT(3)
GLOBAL_UNCERTAINTY_ASSIGNED_CONTEXT((#476))
GLOBAL_UNIT_ASSIGNED_CONTEXT((#488,#491,#489))
REPRESENTATION_CONTEXT('','3D')
);
#483=(
GEOMETRIC_REPRESENTATION_CONTEXT(3)
GLOBAL_UNCERTAINTY_ASSIGNED_CONTEXT((#477))
GLOBAL_UNIT_ASSIGNED_CONTEXT((#488,#491,#489))
REPRESENTATION_CONTEXT('','3D')
);
#484=(
GEOMETRIC_REPRESENTATION_CONTEXT(3)
GLOBAL_UNCERTAINTY_ASSIGNED_CONTEXT((#478))
GLOBAL_UNIT_ASSIGNED_CONTEXT((#488,#491,#489))
REPRESENTATION_CONTEXT('','3D')
);
#485=(
GEOMETRIC_REPRESENTATION_CONTEXT(3)
GLOBAL_UNCERTAINTY_ASSIGNED_CONTEXT((#479))
GLOBAL_UNIT_ASSIGNED_CONTEXT((#488,#491,#489))
REPRESENTATION_CONTEXT('','3D')
);
#486=(
GEOMETRIC_REPRESENTATION_CONTEXT(3)
GLOBAL_UNCERTAINTY_ASSIGNED_CONTEXT((#480))
GLOBAL_UNIT_ASSIGNED_CONTEXT((#488,#491,#489))
REPRESENTATION_CONTEXT('','3D')
);
#487=(
GEOMETRIC_REPRESENTATION_CONTEXT(3)
GLOBAL_UNCERTAINTY_ASSIGNED_CONTEXT((#481))
GLOBAL_UNIT_ASSIGNED_CONTEXT((#488,#491,#489))
REPRESENTATION_CONTEXT('','3D')
);
#488=(
LENGTH_UNIT()
NAMED_UNIT(*)
SI_UNIT(.MILLI.,.METRE.)
);
#489=(
NAMED_UNIT(*)
SI_UNIT($,.STERADIAN.)
SOLID_ANGLE_UNIT()
);
#490=DIMENSIONAL_EXPONENTS(0.,0.,0.,0.,0.,0.,0.);
#491=(
CONVERSION_BASED_UNIT('degree',#493)
NAMED_UNIT(#490)
PLANE_ANGLE_UNIT()
);
#492=(
NAMED_UNIT(*)
PLANE_ANGLE_UNIT()
SI_UNIT($,.RADIAN.)
);
#493=PLANE_ANGLE_MEASURE_WITH_UNIT(PLANE_ANGLE_MEASURE(0.01745329252),#492);
#494=SHAPE_DEFINITION_REPRESENTATION(#499,#508);
#495=SHAPE_DEFINITION_REPRESENTATION(#500,#509);
#496=SHAPE_DEFINITION_REPRESENTATION(#501,#510);
#497=SHAPE_DEFINITION_REPRESENTATION(#502,#511);
#498=SHAPE_DEFINITION_REPRESENTATION(#503,#512);
#499=PRODUCT_DEFINITION_SHAPE('',$,#514);
#500=PRODUCT_DEFINITION_SHAPE('',$,#515);
#501=PRODUCT_DEFINITION_SHAPE('',$,#516);
#502=PRODUCT_DEFINITION_SHAPE('',$,#517);
#503=PRODUCT_DEFINITION_SHAPE('',$,#518);
#504=PRODUCT_DEFINITION_SHAPE($,$,#23);
#505=PRODUCT_DEFINITION_SHAPE($,$,#24);
#506=PRODUCT_DEFINITION_SHAPE($,$,#25);
#507=PRODUCT_DEFINITION_SHAPE($,$,#26);
#508=SHAPE_REPRESENTATION('',(#262),#482);
#509=SHAPE_REPRESENTATION('',(#274),#483);
#510=SHAPE_REPRESENTATION('',(#280),#484);
#511=SHAPE_REPRESENTATION('',(#288),#485);
#512=SHAPE_REPRESENTATION('',(#306,#307,#308,#309,#310),#486);
#513=PRODUCT_DEFINITION_CONTEXT('part definition',#530,'design');
#514=PRODUCT_DEFINITION('Zylinder_15','Zylinder_15',#519,#513);
#515=PRODUCT_DEFINITION('Kolbenstange_06','Kolbenstange_06',#520,#513);
#516=PRODUCT_DEFINITION('Gewindeanschlu\X\DF_V0','Gewindeanschlu\X\DF_
V0',#521,#513);
#517=PRODUCT_DEFINITION('Gewindeanschlu\X\DF_V0_15',
'Gewindeanschlu\X\DF_V0_15',#522,#513);
#518=PRODUCT_DEFINITION('V0V0XA6-050-140--004-000N',
'V0V0XA6-050-140--004-000N',#523,#513);
#519=PRODUCT_DEFINITION_FORMATION('',$,#532);
#520=PRODUCT_DEFINITION_FORMATION('',$,#533);
#521=PRODUCT_DEFINITION_FORMATION('',$,#534);
#522=PRODUCT_DEFINITION_FORMATION('',$,#535);
#523=PRODUCT_DEFINITION_FORMATION('',$,#536);
#524=PRODUCT_RELATED_PRODUCT_CATEGORY('Zylinder_15','Zylinder_15',(#532));
#525=PRODUCT_RELATED_PRODUCT_CATEGORY('Kolbenstange_06',
'Kolbenstange_06',(#533));
#526=PRODUCT_RELATED_PRODUCT_CATEGORY('Gewindeanschlu\X\DF_V0',
'Gewindeanschlu\X\DF_V0',(#534));
#527=PRODUCT_RELATED_PRODUCT_CATEGORY('Gewindeanschlu\X\DF_V0_15',
'Gewindeanschlu\X\DF_V0_15',(#535));
#528=PRODUCT_RELATED_PRODUCT_CATEGORY('V0V0XA6-050-140--004-000N',
'V0V0XA6-050-140--004-000N',(#536));
#529=APPLICATION_PROTOCOL_DEFINITION('international standard',
'automotive_design',2009,#530);
#530=APPLICATION_CONTEXT(
'Core Data for Automotive Mechanical Design Process');
#531=PRODUCT_CONTEXT('part definition',#530,'mechanical');
#532=PRODUCT('Zylinder_15','Zylinder_15',$,(#531));
#533=PRODUCT('Kolbenstange_06','Kolbenstange_06',$,(#531));
#534=PRODUCT('Gewindeanschlu\X\DF_V0','Gewindeanschlu\X\DF_V0',$,(#531));
#535=PRODUCT('Gewindeanschlu\X\DF_V0_15','Gewindeanschlu\X\DF_V0_15',$,
(#531));
#536=PRODUCT('V0V0XA6-050-140--004-000N','V0V0XA6-050-140--004-000N',$,
(#531));
#537=PRESENTATION_STYLE_ASSIGNMENT((#539));
#538=PRESENTATION_STYLE_ASSIGNMENT((#540));
#539=SURFACE_STYLE_USAGE(.BOTH.,#541);
#540=SURFACE_STYLE_USAGE(.BOTH.,#542);
#541=SURFACE_SIDE_STYLE($,(#543));
#542=SURFACE_SIDE_STYLE($,(#544));
#543=SURFACE_STYLE_FILL_AREA(#545);
#544=SURFACE_STYLE_FILL_AREA(#546);
#545=FILL_AREA_STYLE($,(#547));
#546=FILL_AREA_STYLE($,(#548));
#547=FILL_AREA_STYLE_COLOUR($,#549);
#548=FILL_AREA_STYLE_COLOUR($,#550);
#549=COLOUR_RGB('',0.305882352941176,0.305882352941176,0.305882352941176);
#550=COLOUR_RGB('',0.949019607843137,0.925490196078431,0.933333333333333);
ENDSEC;
END-ISO-10303-21;
