ISO-10303-21;
HEADER;
/* Generated by software containing ST-Developer
 * from STEP Tools, Inc. (www.steptools.com) 
 */

FILE_DESCRIPTION(
/* description */ (''),
/* implementation_level */ '2;1');

FILE_NAME(
/* name */ 
'X:\\3D-Zeichnungen\\Zusammenbau-Zeichnungen\\Kundenzeichnungen\\Daemp
fer\\V0V0\\V0V0XE6-075-190--004-000N\\Step-Datei\\V0V0XE6-075-190--004
-000N_Duese geoeffnet.stp',
/* time_stamp */ '2018-08-28T11:08:21+02:00',
/* author */ ('CADNEU'),
/* organization */ (''),
/* preprocessor_version */ 'ST-DEVELOPER v16.1',
/* originating_system */ 'Autodesk Inventor 2016',
/* authorisation */ '');

FILE_SCHEMA (('AUTOMOTIVE_DESIGN { 1 0 10303 214 3 1 1 }'));
ENDSEC;

DATA;
#10=MECHANICAL_DESIGN_GEOMETRIC_PRESENTATION_REPRESENTATION('',(#223,#224,
#225,#226,#227,#228,#229,#230,#231,#232,#233,#234,#235,#236),#488);
#11=ITEM_DEFINED_TRANSFORMATION($,$,#263,#308);
#12=ITEM_DEFINED_TRANSFORMATION($,$,#275,#309);
#13=ITEM_DEFINED_TRANSFORMATION($,$,#281,#310);
#14=ITEM_DEFINED_TRANSFORMATION($,$,#289,#311);
#15=(
REPRESENTATION_RELATIONSHIP($,$,#509,#513)
REPRESENTATION_RELATIONSHIP_WITH_TRANSFORMATION(#11)
SHAPE_REPRESENTATION_RELATIONSHIP()
);
#16=(
REPRESENTATION_RELATIONSHIP($,$,#510,#513)
REPRESENTATION_RELATIONSHIP_WITH_TRANSFORMATION(#12)
SHAPE_REPRESENTATION_RELATIONSHIP()
);
#17=(
REPRESENTATION_RELATIONSHIP($,$,#511,#513)
REPRESENTATION_RELATIONSHIP_WITH_TRANSFORMATION(#13)
SHAPE_REPRESENTATION_RELATIONSHIP()
);
#18=(
REPRESENTATION_RELATIONSHIP($,$,#512,#513)
REPRESENTATION_RELATIONSHIP_WITH_TRANSFORMATION(#14)
SHAPE_REPRESENTATION_RELATIONSHIP()
);
#19=CONTEXT_DEPENDENT_SHAPE_REPRESENTATION(#15,#505);
#20=CONTEXT_DEPENDENT_SHAPE_REPRESENTATION(#16,#506);
#21=CONTEXT_DEPENDENT_SHAPE_REPRESENTATION(#17,#507);
#22=CONTEXT_DEPENDENT_SHAPE_REPRESENTATION(#18,#508);
#23=NEXT_ASSEMBLY_USAGE_OCCURRENCE('Zylinder_15:1','Zylinder_15:1',
'Zylinder_15:1',#519,#515,'Zylinder_15:1');
#24=NEXT_ASSEMBLY_USAGE_OCCURRENCE('Kolbenstange_06_Duese geoeffnet:1',
'Kolbenstange_06_Duese geoeffnet:1','Kolbenstange_06_Duese geoeffnet:1',
#519,#516,'Kolbenstange_06_Duese geoeffnet:1');
#25=NEXT_ASSEMBLY_USAGE_OCCURRENCE('Gewindeanschlu\X\DF_M5x5-V0:1',
'Gewindeanschlu\X\DF_M5x5-V0:1','Gewindeanschlu\X\DF_M5x5-V0:1',#519,#517,
'Gewindeanschlu\X\DF_M5x5-V0:1');
#26=NEXT_ASSEMBLY_USAGE_OCCURRENCE('Gewindeanschlu\X\DF_V0_15:1',
'Gewindeanschlu\X\DF_V0_15:1','Gewindeanschlu\X\DF_V0_15:1',#519,#518,
'Gewindeanschlu\X\DF_V0_15:1');
#27=SHAPE_REPRESENTATION_RELATIONSHIP('SRR','None',#509,#31);
#28=SHAPE_REPRESENTATION_RELATIONSHIP('SRR','None',#510,#32);
#29=SHAPE_REPRESENTATION_RELATIONSHIP('SRR','None',#511,#33);
#30=SHAPE_REPRESENTATION_RELATIONSHIP('SRR','None',#512,#34);
#31=ADVANCED_BREP_SHAPE_REPRESENTATION('',(#35),#483);
#32=ADVANCED_BREP_SHAPE_REPRESENTATION('',(#36),#484);
#33=ADVANCED_BREP_SHAPE_REPRESENTATION('',(#37),#485);
#34=ADVANCED_BREP_SHAPE_REPRESENTATION('',(#38),#486);
#35=MANIFOLD_SOLID_BREP('Volumenk\X\F6rper1',#259);
#36=MANIFOLD_SOLID_BREP('Volumenk\X\F6rper2',#260);
#37=MANIFOLD_SOLID_BREP('Volumenk\X\F6rper2',#261);
#38=MANIFOLD_SOLID_BREP('Volumenk\X\F6rper1',#262);
#39=TOROIDAL_SURFACE('',#270,4.44000004000701,3.05999995999292);
#40=TOROIDAL_SURFACE('',#294,4.40000100913445,3.10000000000002);
#41=CONICAL_SURFACE('',#268,5.34858290651635,75.000000000004);
#42=CONICAL_SURFACE('',#286,2.35,45.);
#43=CONICAL_SURFACE('',#296,5.38364501008995,74.6938610259098);
#44=CONICAL_SURFACE('',#304,2.325,45.0000000000004);
#45=FACE_BOUND('',#90,.T.);
#46=FACE_BOUND('',#92,.T.);
#47=FACE_BOUND('',#94,.T.);
#48=FACE_BOUND('',#96,.T.);
#49=FACE_BOUND('',#100,.T.);
#50=FACE_BOUND('',#104,.T.);
#51=FACE_BOUND('',#106,.T.);
#52=FACE_BOUND('',#110,.T.);
#53=FACE_BOUND('',#112,.T.);
#54=FACE_BOUND('',#114,.T.);
#55=FACE_BOUND('',#116,.T.);
#56=FACE_BOUND('',#118,.T.);
#57=FACE_BOUND('',#120,.T.);
#58=FACE_BOUND('',#122,.T.);
#59=CYLINDRICAL_SURFACE('',#266,5.40000000000001);
#60=CYLINDRICAL_SURFACE('',#272,7.49999998469689);
#61=CYLINDRICAL_SURFACE('',#278,3.00000000000001);
#62=CYLINDRICAL_SURFACE('',#284,2.5);
#63=CYLINDRICAL_SURFACE('',#292,7.5);
#64=CYLINDRICAL_SURFACE('',#298,5.44999892841209);
#65=CYLINDRICAL_SURFACE('',#302,2.5);
#66=FACE_OUTER_BOUND('',#88,.T.);
#67=FACE_OUTER_BOUND('',#89,.T.);
#68=FACE_OUTER_BOUND('',#91,.T.);
#69=FACE_OUTER_BOUND('',#93,.T.);
#70=FACE_OUTER_BOUND('',#95,.T.);
#71=FACE_OUTER_BOUND('',#97,.T.);
#72=FACE_OUTER_BOUND('',#98,.T.);
#73=FACE_OUTER_BOUND('',#99,.T.);
#74=FACE_OUTER_BOUND('',#101,.T.);
#75=FACE_OUTER_BOUND('',#102,.T.);
#76=FACE_OUTER_BOUND('',#103,.T.);
#77=FACE_OUTER_BOUND('',#105,.T.);
#78=FACE_OUTER_BOUND('',#107,.T.);
#79=FACE_OUTER_BOUND('',#108,.T.);
#80=FACE_OUTER_BOUND('',#109,.T.);
#81=FACE_OUTER_BOUND('',#111,.T.);
#82=FACE_OUTER_BOUND('',#113,.T.);
#83=FACE_OUTER_BOUND('',#115,.T.);
#84=FACE_OUTER_BOUND('',#117,.T.);
#85=FACE_OUTER_BOUND('',#119,.T.);
#86=FACE_OUTER_BOUND('',#121,.T.);
#87=FACE_OUTER_BOUND('',#123,.T.);
#88=EDGE_LOOP('',(#178));
#89=EDGE_LOOP('',(#179));
#90=EDGE_LOOP('',(#180));
#91=EDGE_LOOP('',(#181));
#92=EDGE_LOOP('',(#182));
#93=EDGE_LOOP('',(#183));
#94=EDGE_LOOP('',(#184));
#95=EDGE_LOOP('',(#185));
#96=EDGE_LOOP('',(#186));
#97=EDGE_LOOP('',(#187));
#98=EDGE_LOOP('',(#188));
#99=EDGE_LOOP('',(#189));
#100=EDGE_LOOP('',(#190));
#101=EDGE_LOOP('',(#191));
#102=EDGE_LOOP('',(#192));
#103=EDGE_LOOP('',(#193));
#104=EDGE_LOOP('',(#194));
#105=EDGE_LOOP('',(#195));
#106=EDGE_LOOP('',(#196));
#107=EDGE_LOOP('',(#197));
#108=EDGE_LOOP('',(#198));
#109=EDGE_LOOP('',(#199));
#110=EDGE_LOOP('',(#200));
#111=EDGE_LOOP('',(#201));
#112=EDGE_LOOP('',(#202));
#113=EDGE_LOOP('',(#203));
#114=EDGE_LOOP('',(#204));
#115=EDGE_LOOP('',(#205));
#116=EDGE_LOOP('',(#206));
#117=EDGE_LOOP('',(#207));
#118=EDGE_LOOP('',(#208));
#119=EDGE_LOOP('',(#209));
#120=EDGE_LOOP('',(#210));
#121=EDGE_LOOP('',(#211));
#122=EDGE_LOOP('',(#212));
#123=EDGE_LOOP('',(#213));
#124=CIRCLE('',#265,5.40000000000001);
#125=CIRCLE('',#267,5.40000000000001);
#126=CIRCLE('',#269,5.29716581303269);
#127=CIRCLE('',#271,7.49999998469688);
#128=CIRCLE('',#273,7.49999998469689);
#129=CIRCLE('',#277,3.);
#130=CIRCLE('',#279,3.00000000000001);
#131=CIRCLE('',#283,2.5);
#132=CIRCLE('',#285,2.5);
#133=CIRCLE('',#287,2.2);
#134=CIRCLE('',#291,7.5);
#135=CIRCLE('',#293,7.5);
#136=CIRCLE('',#295,5.31729109176781);
#137=CIRCLE('',#297,5.44999892841209);
#138=CIRCLE('',#299,5.44999892841209);
#139=CIRCLE('',#301,2.5);
#140=CIRCLE('',#303,2.5);
#141=CIRCLE('',#305,2.15);
#142=VERTEX_POINT('',#412);
#143=VERTEX_POINT('',#415);
#144=VERTEX_POINT('',#418);
#145=VERTEX_POINT('',#421);
#146=VERTEX_POINT('',#424);
#147=VERTEX_POINT('',#429);
#148=VERTEX_POINT('',#432);
#149=VERTEX_POINT('',#437);
#150=VERTEX_POINT('',#440);
#151=VERTEX_POINT('',#443);
#152=VERTEX_POINT('',#448);
#153=VERTEX_POINT('',#451);
#154=VERTEX_POINT('',#454);
#155=VERTEX_POINT('',#457);
#156=VERTEX_POINT('',#460);
#157=VERTEX_POINT('',#463);
#158=VERTEX_POINT('',#466);
#159=VERTEX_POINT('',#469);
#160=EDGE_CURVE('',#142,#142,#124,.T.);
#161=EDGE_CURVE('',#143,#143,#125,.T.);
#162=EDGE_CURVE('',#144,#144,#126,.T.);
#163=EDGE_CURVE('',#145,#145,#127,.T.);
#164=EDGE_CURVE('',#146,#146,#128,.T.);
#165=EDGE_CURVE('',#147,#147,#129,.T.);
#166=EDGE_CURVE('',#148,#148,#130,.T.);
#167=EDGE_CURVE('',#149,#149,#131,.T.);
#168=EDGE_CURVE('',#150,#150,#132,.T.);
#169=EDGE_CURVE('',#151,#151,#133,.T.);
#170=EDGE_CURVE('',#152,#152,#134,.T.);
#171=EDGE_CURVE('',#153,#153,#135,.T.);
#172=EDGE_CURVE('',#154,#154,#136,.T.);
#173=EDGE_CURVE('',#155,#155,#137,.T.);
#174=EDGE_CURVE('',#156,#156,#138,.T.);
#175=EDGE_CURVE('',#157,#157,#139,.T.);
#176=EDGE_CURVE('',#158,#158,#140,.T.);
#177=EDGE_CURVE('',#159,#159,#141,.T.);
#178=ORIENTED_EDGE('',*,*,#160,.F.);
#179=ORIENTED_EDGE('',*,*,#161,.F.);
#180=ORIENTED_EDGE('',*,*,#160,.T.);
#181=ORIENTED_EDGE('',*,*,#162,.F.);
#182=ORIENTED_EDGE('',*,*,#161,.T.);
#183=ORIENTED_EDGE('',*,*,#163,.F.);
#184=ORIENTED_EDGE('',*,*,#162,.T.);
#185=ORIENTED_EDGE('',*,*,#163,.T.);
#186=ORIENTED_EDGE('',*,*,#164,.F.);
#187=ORIENTED_EDGE('',*,*,#164,.T.);
#188=ORIENTED_EDGE('',*,*,#165,.F.);
#189=ORIENTED_EDGE('',*,*,#166,.F.);
#190=ORIENTED_EDGE('',*,*,#165,.T.);
#191=ORIENTED_EDGE('',*,*,#166,.T.);
#192=ORIENTED_EDGE('',*,*,#167,.F.);
#193=ORIENTED_EDGE('',*,*,#168,.F.);
#194=ORIENTED_EDGE('',*,*,#167,.T.);
#195=ORIENTED_EDGE('',*,*,#169,.F.);
#196=ORIENTED_EDGE('',*,*,#168,.T.);
#197=ORIENTED_EDGE('',*,*,#169,.T.);
#198=ORIENTED_EDGE('',*,*,#170,.F.);
#199=ORIENTED_EDGE('',*,*,#171,.F.);
#200=ORIENTED_EDGE('',*,*,#170,.T.);
#201=ORIENTED_EDGE('',*,*,#172,.F.);
#202=ORIENTED_EDGE('',*,*,#171,.T.);
#203=ORIENTED_EDGE('',*,*,#173,.F.);
#204=ORIENTED_EDGE('',*,*,#172,.T.);
#205=ORIENTED_EDGE('',*,*,#174,.F.);
#206=ORIENTED_EDGE('',*,*,#173,.T.);
#207=ORIENTED_EDGE('',*,*,#174,.T.);
#208=ORIENTED_EDGE('',*,*,#175,.F.);
#209=ORIENTED_EDGE('',*,*,#176,.F.);
#210=ORIENTED_EDGE('',*,*,#175,.T.);
#211=ORIENTED_EDGE('',*,*,#177,.F.);
#212=ORIENTED_EDGE('',*,*,#176,.T.);
#213=ORIENTED_EDGE('',*,*,#177,.T.);
#214=PLANE('',#264);
#215=PLANE('',#274);
#216=PLANE('',#276);
#217=PLANE('',#280);
#218=PLANE('',#282);
#219=PLANE('',#288);
#220=PLANE('',#290);
#221=PLANE('',#300);
#222=PLANE('',#306);
#223=STYLED_ITEM('',(#539),#237);
#224=STYLED_ITEM('',(#539),#238);
#225=STYLED_ITEM('',(#539),#239);
#226=STYLED_ITEM('',(#540),#240);
#227=STYLED_ITEM('',(#540),#241);
#228=STYLED_ITEM('',(#538),#35);
#229=STYLED_ITEM('',(#540),#36);
#230=STYLED_ITEM('',(#540),#37);
#231=STYLED_ITEM('',(#540),#250);
#232=STYLED_ITEM('',(#540),#251);
#233=STYLED_ITEM('',(#540),#252);
#234=STYLED_ITEM('',(#539),#253);
#235=STYLED_ITEM('',(#539),#257);
#236=STYLED_ITEM('',(#541),#38);
#237=ADVANCED_FACE('',(#66),#214,.T.);
#238=ADVANCED_FACE('',(#67,#45),#59,.T.);
#239=ADVANCED_FACE('',(#68,#46),#41,.T.);
#240=ADVANCED_FACE('',(#69,#47),#39,.T.);
#241=ADVANCED_FACE('',(#70,#48),#60,.T.);
#242=ADVANCED_FACE('',(#71),#215,.T.);
#243=ADVANCED_FACE('',(#72),#216,.T.);
#244=ADVANCED_FACE('',(#73,#49),#61,.T.);
#245=ADVANCED_FACE('',(#74),#217,.T.);
#246=ADVANCED_FACE('',(#75),#218,.T.);
#247=ADVANCED_FACE('',(#76,#50),#62,.T.);
#248=ADVANCED_FACE('',(#77,#51),#42,.T.);
#249=ADVANCED_FACE('',(#78),#219,.T.);
#250=ADVANCED_FACE('',(#79),#220,.T.);
#251=ADVANCED_FACE('',(#80,#52),#63,.T.);
#252=ADVANCED_FACE('',(#81,#53),#40,.T.);
#253=ADVANCED_FACE('',(#82,#54),#43,.T.);
#254=ADVANCED_FACE('',(#83,#55),#64,.T.);
#255=ADVANCED_FACE('',(#84,#56),#221,.T.);
#256=ADVANCED_FACE('',(#85,#57),#65,.T.);
#257=ADVANCED_FACE('',(#86,#58),#44,.T.);
#258=ADVANCED_FACE('',(#87),#222,.T.);
#259=CLOSED_SHELL('',(#237,#238,#239,#240,#241,#242));
#260=CLOSED_SHELL('',(#243,#244,#245));
#261=CLOSED_SHELL('',(#246,#247,#248,#249));
#262=CLOSED_SHELL('',(#250,#251,#252,#253,#254,#255,#256,#257,#258));
#263=AXIS2_PLACEMENT_3D('placement',#410,#312,#313);
#264=AXIS2_PLACEMENT_3D('',#411,#314,#315);
#265=AXIS2_PLACEMENT_3D('',#413,#316,#317);
#266=AXIS2_PLACEMENT_3D('',#414,#318,#319);
#267=AXIS2_PLACEMENT_3D('',#416,#320,#321);
#268=AXIS2_PLACEMENT_3D('',#417,#322,#323);
#269=AXIS2_PLACEMENT_3D('',#419,#324,#325);
#270=AXIS2_PLACEMENT_3D('',#420,#326,#327);
#271=AXIS2_PLACEMENT_3D('',#422,#328,#329);
#272=AXIS2_PLACEMENT_3D('',#423,#330,#331);
#273=AXIS2_PLACEMENT_3D('',#425,#332,#333);
#274=AXIS2_PLACEMENT_3D('',#426,#334,#335);
#275=AXIS2_PLACEMENT_3D('placement',#427,#336,#337);
#276=AXIS2_PLACEMENT_3D('',#428,#338,#339);
#277=AXIS2_PLACEMENT_3D('',#430,#340,#341);
#278=AXIS2_PLACEMENT_3D('',#431,#342,#343);
#279=AXIS2_PLACEMENT_3D('',#433,#344,#345);
#280=AXIS2_PLACEMENT_3D('',#434,#346,#347);
#281=AXIS2_PLACEMENT_3D('placement',#435,#348,#349);
#282=AXIS2_PLACEMENT_3D('',#436,#350,#351);
#283=AXIS2_PLACEMENT_3D('',#438,#352,#353);
#284=AXIS2_PLACEMENT_3D('',#439,#354,#355);
#285=AXIS2_PLACEMENT_3D('',#441,#356,#357);
#286=AXIS2_PLACEMENT_3D('',#442,#358,#359);
#287=AXIS2_PLACEMENT_3D('',#444,#360,#361);
#288=AXIS2_PLACEMENT_3D('',#445,#362,#363);
#289=AXIS2_PLACEMENT_3D('placement',#446,#364,#365);
#290=AXIS2_PLACEMENT_3D('',#447,#366,#367);
#291=AXIS2_PLACEMENT_3D('',#449,#368,#369);
#292=AXIS2_PLACEMENT_3D('',#450,#370,#371);
#293=AXIS2_PLACEMENT_3D('',#452,#372,#373);
#294=AXIS2_PLACEMENT_3D('',#453,#374,#375);
#295=AXIS2_PLACEMENT_3D('',#455,#376,#377);
#296=AXIS2_PLACEMENT_3D('',#456,#378,#379);
#297=AXIS2_PLACEMENT_3D('',#458,#380,#381);
#298=AXIS2_PLACEMENT_3D('',#459,#382,#383);
#299=AXIS2_PLACEMENT_3D('',#461,#384,#385);
#300=AXIS2_PLACEMENT_3D('',#462,#386,#387);
#301=AXIS2_PLACEMENT_3D('',#464,#388,#389);
#302=AXIS2_PLACEMENT_3D('',#465,#390,#391);
#303=AXIS2_PLACEMENT_3D('',#467,#392,#393);
#304=AXIS2_PLACEMENT_3D('',#468,#394,#395);
#305=AXIS2_PLACEMENT_3D('',#470,#396,#397);
#306=AXIS2_PLACEMENT_3D('',#471,#398,#399);
#307=AXIS2_PLACEMENT_3D('placement',#472,#400,#401);
#308=AXIS2_PLACEMENT_3D('',#473,#402,#403);
#309=AXIS2_PLACEMENT_3D('',#474,#404,#405);
#310=AXIS2_PLACEMENT_3D('',#475,#406,#407);
#311=AXIS2_PLACEMENT_3D('',#476,#408,#409);
#312=DIRECTION('axis',(0.,0.,1.));
#313=DIRECTION('refdir',(1.,0.,0.));
#314=DIRECTION('center_axis',(-1.,0.,0.));
#315=DIRECTION('ref_axis',(0.,0.,1.));
#316=DIRECTION('center_axis',(1.,0.,0.));
#317=DIRECTION('ref_axis',(0.,1.,0.));
#318=DIRECTION('center_axis',(1.,0.,0.));
#319=DIRECTION('ref_axis',(0.,1.,0.));
#320=DIRECTION('center_axis',(1.,0.,0.));
#321=DIRECTION('ref_axis',(0.,1.,0.));
#322=DIRECTION('center_axis',(-1.,0.,0.));
#323=DIRECTION('ref_axis',(0.,1.,0.));
#324=DIRECTION('center_axis',(1.,0.,0.));
#325=DIRECTION('ref_axis',(0.,1.,0.));
#326=DIRECTION('center_axis',(1.,0.,0.));
#327=DIRECTION('ref_axis',(0.,0.,-1.));
#328=DIRECTION('center_axis',(1.,0.,0.));
#329=DIRECTION('ref_axis',(0.,1.,0.));
#330=DIRECTION('center_axis',(1.,0.,0.));
#331=DIRECTION('ref_axis',(0.,1.,0.));
#332=DIRECTION('center_axis',(1.,0.,0.));
#333=DIRECTION('ref_axis',(0.,1.,0.));
#334=DIRECTION('center_axis',(1.,0.,0.));
#335=DIRECTION('ref_axis',(0.,0.,-1.));
#336=DIRECTION('axis',(0.,0.,1.));
#337=DIRECTION('refdir',(1.,0.,0.));
#338=DIRECTION('center_axis',(-1.,0.,0.));
#339=DIRECTION('ref_axis',(0.,0.,1.));
#340=DIRECTION('center_axis',(1.,0.,0.));
#341=DIRECTION('ref_axis',(0.,1.,0.));
#342=DIRECTION('center_axis',(1.,0.,0.));
#343=DIRECTION('ref_axis',(0.,1.,0.));
#344=DIRECTION('center_axis',(1.,0.,0.));
#345=DIRECTION('ref_axis',(0.,1.,0.));
#346=DIRECTION('center_axis',(1.,0.,0.));
#347=DIRECTION('ref_axis',(0.,0.,-1.));
#348=DIRECTION('axis',(0.,0.,1.));
#349=DIRECTION('refdir',(1.,0.,0.));
#350=DIRECTION('center_axis',(1.,0.,0.));
#351=DIRECTION('ref_axis',(0.,0.,-1.));
#352=DIRECTION('center_axis',(-1.,0.,0.));
#353=DIRECTION('ref_axis',(0.,-1.,0.));
#354=DIRECTION('center_axis',(-1.,0.,0.));
#355=DIRECTION('ref_axis',(0.,-1.,0.));
#356=DIRECTION('center_axis',(-1.,0.,0.));
#357=DIRECTION('ref_axis',(0.,-1.,0.));
#358=DIRECTION('center_axis',(1.,0.,0.));
#359=DIRECTION('ref_axis',(0.,-1.,0.));
#360=DIRECTION('center_axis',(-1.,0.,0.));
#361=DIRECTION('ref_axis',(0.,-1.,0.));
#362=DIRECTION('center_axis',(-1.,0.,0.));
#363=DIRECTION('ref_axis',(0.,0.,1.));
#364=DIRECTION('axis',(0.,0.,1.));
#365=DIRECTION('refdir',(1.,0.,0.));
#366=DIRECTION('center_axis',(-1.,0.,0.));
#367=DIRECTION('ref_axis',(0.,0.,1.));
#368=DIRECTION('center_axis',(1.,0.,0.));
#369=DIRECTION('ref_axis',(0.,1.,0.));
#370=DIRECTION('center_axis',(1.,0.,0.));
#371=DIRECTION('ref_axis',(0.,1.,0.));
#372=DIRECTION('center_axis',(1.,0.,0.));
#373=DIRECTION('ref_axis',(0.,1.,0.));
#374=DIRECTION('center_axis',(1.,0.,0.));
#375=DIRECTION('ref_axis',(0.,0.,-1.));
#376=DIRECTION('center_axis',(1.,0.,0.));
#377=DIRECTION('ref_axis',(0.,1.,0.));
#378=DIRECTION('center_axis',(1.,0.,0.));
#379=DIRECTION('ref_axis',(0.,1.,0.));
#380=DIRECTION('center_axis',(1.,0.,0.));
#381=DIRECTION('ref_axis',(0.,1.,0.));
#382=DIRECTION('center_axis',(1.,0.,0.));
#383=DIRECTION('ref_axis',(0.,1.,0.));
#384=DIRECTION('center_axis',(1.,0.,0.));
#385=DIRECTION('ref_axis',(0.,1.,0.));
#386=DIRECTION('center_axis',(1.,0.,0.));
#387=DIRECTION('ref_axis',(0.,0.,-1.));
#388=DIRECTION('center_axis',(1.,0.,0.));
#389=DIRECTION('ref_axis',(0.,1.,0.));
#390=DIRECTION('center_axis',(1.,0.,0.));
#391=DIRECTION('ref_axis',(0.,1.,0.));
#392=DIRECTION('center_axis',(1.,0.,0.));
#393=DIRECTION('ref_axis',(0.,1.,0.));
#394=DIRECTION('center_axis',(-1.,0.,0.));
#395=DIRECTION('ref_axis',(0.,1.,0.));
#396=DIRECTION('center_axis',(1.,0.,0.));
#397=DIRECTION('ref_axis',(0.,1.,0.));
#398=DIRECTION('center_axis',(1.,0.,0.));
#399=DIRECTION('ref_axis',(0.,0.,-1.));
#400=DIRECTION('axis',(0.,0.,1.));
#401=DIRECTION('refdir',(1.,0.,0.));
#402=DIRECTION('',(0.,0.,1.));
#403=DIRECTION('',(1.,0.,0.));
#404=DIRECTION('',(0.,0.,1.));
#405=DIRECTION('',(1.,0.,0.));
#406=DIRECTION('',(0.,0.,1.));
#407=DIRECTION('',(1.,0.,0.));
#408=DIRECTION('',(0.,0.,1.));
#409=DIRECTION('',(1.,0.,0.));
#410=CARTESIAN_POINT('',(0.,0.,0.));
#411=CARTESIAN_POINT('Origin',(-1.77809156287623E-15,2.7,0.));
#412=CARTESIAN_POINT('',(-3.55618312575245E-15,5.40000000000001,0.));
#413=CARTESIAN_POINT('Origin',(0.,0.,0.));
#414=CARTESIAN_POINT('Origin',(0.217276186012523,0.,0.));
#415=CARTESIAN_POINT('',(0.434552372025035,5.40000000000001,0.));
#416=CARTESIAN_POINT('Origin',(0.434552372025028,0.,0.));
#417=CARTESIAN_POINT('Origin',(0.448329540701131,0.,0.));
#418=CARTESIAN_POINT('',(0.462106709377231,5.29716581303269,0.));
#419=CARTESIAN_POINT('Origin',(0.462106709377235,0.,0.));
#420=CARTESIAN_POINT('Origin',(3.39959995919247,0.,0.));
#421=CARTESIAN_POINT('',(3.39929392797725,7.49999998469688,0.));
#422=CARTESIAN_POINT('Origin',(3.39929392797725,0.,0.));
#423=CARTESIAN_POINT('Origin',(54.4497999795962,0.,0.));
#424=CARTESIAN_POINT('',(105.5,7.49999998469689,0.));
#425=CARTESIAN_POINT('Origin',(105.5,0.,0.));
#426=CARTESIAN_POINT('Origin',(105.5,3.74999999234845,0.));
#427=CARTESIAN_POINT('',(0.,0.,0.));
#428=CARTESIAN_POINT('Origin',(-1.38777878078145E-16,1.5,0.));
#429=CARTESIAN_POINT('',(-5.55111512312578E-16,3.,0.));
#430=CARTESIAN_POINT('Origin',(0.,0.,0.));
#431=CARTESIAN_POINT('Origin',(43.65,0.,0.));
#432=CARTESIAN_POINT('',(87.3,3.00000000000001,0.));
#433=CARTESIAN_POINT('Origin',(87.3,0.,0.));
#434=CARTESIAN_POINT('Origin',(87.3,1.50000000000001,0.));
#435=CARTESIAN_POINT('',(0.,0.,0.));
#436=CARTESIAN_POINT('Origin',(5.35782974626967E-16,-1.25,0.));
#437=CARTESIAN_POINT('',(1.07156594925393E-15,-2.5,0.));
#438=CARTESIAN_POINT('Origin',(1.11022302462516E-15,0.,0.));
#439=CARTESIAN_POINT('Origin',(-2.35,0.,0.));
#440=CARTESIAN_POINT('',(-4.7,-2.5,0.));
#441=CARTESIAN_POINT('Origin',(-4.7,0.,0.));
#442=CARTESIAN_POINT('Origin',(-4.85,0.,0.));
#443=CARTESIAN_POINT('',(-5.,-2.2,0.));
#444=CARTESIAN_POINT('Origin',(-5.,0.,0.));
#445=CARTESIAN_POINT('Origin',(-5.,-1.1,0.));
#446=CARTESIAN_POINT('',(0.,0.,0.));
#447=CARTESIAN_POINT('Origin',(7.71951946809679E-15,3.75,0.));
#448=CARTESIAN_POINT('',(1.54390389361936E-14,7.5,0.));
#449=CARTESIAN_POINT('Origin',(1.55431223447522E-14,0.,0.));
#450=CARTESIAN_POINT('Origin',(0.250000000000008,0.,0.));
#451=CARTESIAN_POINT('',(0.5,7.5,0.));
#452=CARTESIAN_POINT('Origin',(0.499999999999999,0.,0.));
#453=CARTESIAN_POINT('Origin',(0.502501326185908,0.,0.));
#454=CARTESIAN_POINT('',(3.46367996049735,5.31729109176781,0.));
#455=CARTESIAN_POINT('Origin',(3.46367996049735,0.,0.));
#456=CARTESIAN_POINT('Origin',(3.48183998024868,0.,0.));
#457=CARTESIAN_POINT('',(3.5,5.44999892841209,0.));
#458=CARTESIAN_POINT('Origin',(3.5,0.,0.));
#459=CARTESIAN_POINT('Origin',(4.,0.,0.));
#460=CARTESIAN_POINT('',(4.5,5.44999892841209,0.));
#461=CARTESIAN_POINT('Origin',(4.5,0.,0.));
#462=CARTESIAN_POINT('Origin',(4.5,3.97499946420604,0.));
#463=CARTESIAN_POINT('',(4.5,2.5,0.));
#464=CARTESIAN_POINT('Origin',(4.5,0.,0.));
#465=CARTESIAN_POINT('Origin',(6.825,0.,0.));
#466=CARTESIAN_POINT('',(9.15000000000001,2.5,0.));
#467=CARTESIAN_POINT('Origin',(9.15000000000001,0.,0.));
#468=CARTESIAN_POINT('Origin',(9.325,0.,0.));
#469=CARTESIAN_POINT('',(9.5,2.15,0.));
#470=CARTESIAN_POINT('Origin',(9.5,0.,0.));
#471=CARTESIAN_POINT('Origin',(9.5,1.075,0.));
#472=CARTESIAN_POINT('',(0.,0.,0.));
#473=CARTESIAN_POINT('',(0.,0.,0.));
#474=CARTESIAN_POINT('',(-87.3,0.,0.));
#475=CARTESIAN_POINT('',(-87.3,0.,0.));
#476=CARTESIAN_POINT('',(105.5,0.,0.));
#477=UNCERTAINTY_MEASURE_WITH_UNIT(LENGTH_MEASURE(0.01),#489,
'DISTANCE_ACCURACY_VALUE',
'Maximum model space distance between geometric entities at asserted c
onnectivities');
#478=UNCERTAINTY_MEASURE_WITH_UNIT(LENGTH_MEASURE(0.01),#489,
'DISTANCE_ACCURACY_VALUE',
'Maximum model space distance between geometric entities at asserted c
onnectivities');
#479=UNCERTAINTY_MEASURE_WITH_UNIT(LENGTH_MEASURE(0.01),#489,
'DISTANCE_ACCURACY_VALUE',
'Maximum model space distance between geometric entities at asserted c
onnectivities');
#480=UNCERTAINTY_MEASURE_WITH_UNIT(LENGTH_MEASURE(0.01),#489,
'DISTANCE_ACCURACY_VALUE',
'Maximum model space distance between geometric entities at asserted c
onnectivities');
#481=UNCERTAINTY_MEASURE_WITH_UNIT(LENGTH_MEASURE(0.01),#489,
'DISTANCE_ACCURACY_VALUE',
'Maximum model space distance between geometric entities at asserted c
onnectivities');
#482=UNCERTAINTY_MEASURE_WITH_UNIT(LENGTH_MEASURE(1.E-6),#489,
'DISTANCE_ACCURACY_VALUE',
'Maximum model space distance between geometric entities at asserted c
onnectivities');
#483=(
GEOMETRIC_REPRESENTATION_CONTEXT(3)
GLOBAL_UNCERTAINTY_ASSIGNED_CONTEXT((#477))
GLOBAL_UNIT_ASSIGNED_CONTEXT((#489,#492,#490))
REPRESENTATION_CONTEXT('','3D')
);
#484=(
GEOMETRIC_REPRESENTATION_CONTEXT(3)
GLOBAL_UNCERTAINTY_ASSIGNED_CONTEXT((#478))
GLOBAL_UNIT_ASSIGNED_CONTEXT((#489,#492,#490))
REPRESENTATION_CONTEXT('','3D')
);
#485=(
GEOMETRIC_REPRESENTATION_CONTEXT(3)
GLOBAL_UNCERTAINTY_ASSIGNED_CONTEXT((#479))
GLOBAL_UNIT_ASSIGNED_CONTEXT((#489,#492,#490))
REPRESENTATION_CONTEXT('','3D')
);
#486=(
GEOMETRIC_REPRESENTATION_CONTEXT(3)
GLOBAL_UNCERTAINTY_ASSIGNED_CONTEXT((#480))
GLOBAL_UNIT_ASSIGNED_CONTEXT((#489,#492,#490))
REPRESENTATION_CONTEXT('','3D')
);
#487=(
GEOMETRIC_REPRESENTATION_CONTEXT(3)
GLOBAL_UNCERTAINTY_ASSIGNED_CONTEXT((#481))
GLOBAL_UNIT_ASSIGNED_CONTEXT((#489,#492,#490))
REPRESENTATION_CONTEXT('','3D')
);
#488=(
GEOMETRIC_REPRESENTATION_CONTEXT(3)
GLOBAL_UNCERTAINTY_ASSIGNED_CONTEXT((#482))
GLOBAL_UNIT_ASSIGNED_CONTEXT((#489,#492,#490))
REPRESENTATION_CONTEXT('','3D')
);
#489=(
LENGTH_UNIT()
NAMED_UNIT(*)
SI_UNIT(.MILLI.,.METRE.)
);
#490=(
NAMED_UNIT(*)
SI_UNIT($,.STERADIAN.)
SOLID_ANGLE_UNIT()
);
#491=DIMENSIONAL_EXPONENTS(0.,0.,0.,0.,0.,0.,0.);
#492=(
CONVERSION_BASED_UNIT('degree',#494)
NAMED_UNIT(#491)
PLANE_ANGLE_UNIT()
);
#493=(
NAMED_UNIT(*)
PLANE_ANGLE_UNIT()
SI_UNIT($,.RADIAN.)
);
#494=PLANE_ANGLE_MEASURE_WITH_UNIT(PLANE_ANGLE_MEASURE(0.01745329252),#493);
#495=SHAPE_DEFINITION_REPRESENTATION(#500,#509);
#496=SHAPE_DEFINITION_REPRESENTATION(#501,#510);
#497=SHAPE_DEFINITION_REPRESENTATION(#502,#511);
#498=SHAPE_DEFINITION_REPRESENTATION(#503,#512);
#499=SHAPE_DEFINITION_REPRESENTATION(#504,#513);
#500=PRODUCT_DEFINITION_SHAPE('',$,#515);
#501=PRODUCT_DEFINITION_SHAPE('',$,#516);
#502=PRODUCT_DEFINITION_SHAPE('',$,#517);
#503=PRODUCT_DEFINITION_SHAPE('',$,#518);
#504=PRODUCT_DEFINITION_SHAPE('',$,#519);
#505=PRODUCT_DEFINITION_SHAPE($,$,#23);
#506=PRODUCT_DEFINITION_SHAPE($,$,#24);
#507=PRODUCT_DEFINITION_SHAPE($,$,#25);
#508=PRODUCT_DEFINITION_SHAPE($,$,#26);
#509=SHAPE_REPRESENTATION('',(#263),#483);
#510=SHAPE_REPRESENTATION('',(#275),#484);
#511=SHAPE_REPRESENTATION('',(#281),#485);
#512=SHAPE_REPRESENTATION('',(#289),#486);
#513=SHAPE_REPRESENTATION('',(#307,#308,#309,#310,#311),#487);
#514=PRODUCT_DEFINITION_CONTEXT('part definition',#531,'design');
#515=PRODUCT_DEFINITION('Zylinder_15','Zylinder_15',#520,#514);
#516=PRODUCT_DEFINITION('Kolbenstange_06_Duese geoeffnet',
'Kolbenstange_06_Duese geoeffnet',#521,#514);
#517=PRODUCT_DEFINITION('Gewindeanschlu\X\DF_M5x5-V0',
'Gewindeanschlu\X\DF_M5x5-V0',#522,#514);
#518=PRODUCT_DEFINITION('Gewindeanschlu\X\DF_V0_15',
'Gewindeanschlu\X\DF_V0_15',#523,#514);
#519=PRODUCT_DEFINITION('V0V0XE6-075-190--004-000N_Duese geoeffnet',
'V0V0XE6-075-190--004-000N_Duese geoeffnet',#524,#514);
#520=PRODUCT_DEFINITION_FORMATION('',$,#533);
#521=PRODUCT_DEFINITION_FORMATION('',$,#534);
#522=PRODUCT_DEFINITION_FORMATION('',$,#535);
#523=PRODUCT_DEFINITION_FORMATION('',$,#536);
#524=PRODUCT_DEFINITION_FORMATION('',$,#537);
#525=PRODUCT_RELATED_PRODUCT_CATEGORY('Zylinder_15','Zylinder_15',(#533));
#526=PRODUCT_RELATED_PRODUCT_CATEGORY('Kolbenstange_06_Duese geoeffnet',
'Kolbenstange_06_Duese geoeffnet',(#534));
#527=PRODUCT_RELATED_PRODUCT_CATEGORY('Gewindeanschlu\X\DF_M5x5-V0',
'Gewindeanschlu\X\DF_M5x5-V0',(#535));
#528=PRODUCT_RELATED_PRODUCT_CATEGORY('Gewindeanschlu\X\DF_V0_15',
'Gewindeanschlu\X\DF_V0_15',(#536));
#529=PRODUCT_RELATED_PRODUCT_CATEGORY(
'V0V0XE6-075-190--004-000N_Duese geoeffnet',
'V0V0XE6-075-190--004-000N_Duese geoeffnet',(#537));
#530=APPLICATION_PROTOCOL_DEFINITION('international standard',
'automotive_design',2009,#531);
#531=APPLICATION_CONTEXT(
'Core Data for Automotive Mechanical Design Process');
#532=PRODUCT_CONTEXT('part definition',#531,'mechanical');
#533=PRODUCT('Zylinder_15','Zylinder_15',$,(#532));
#534=PRODUCT('Kolbenstange_06_Duese geoeffnet',
'Kolbenstange_06_Duese geoeffnet',$,(#532));
#535=PRODUCT('Gewindeanschlu\X\DF_M5x5-V0','Gewindeanschlu\X\DF_M5x5-V
0',$,(#532));
#536=PRODUCT('Gewindeanschlu\X\DF_V0_15','Gewindeanschlu\X\DF_V0_15',$,
(#532));
#537=PRODUCT('V0V0XE6-075-190--004-000N_Duese geoeffnet',
'V0V0XE6-075-190--004-000N_Duese geoeffnet',$,(#532));
#538=PRESENTATION_STYLE_ASSIGNMENT((#542));
#539=PRESENTATION_STYLE_ASSIGNMENT((#543));
#540=PRESENTATION_STYLE_ASSIGNMENT((#544));
#541=PRESENTATION_STYLE_ASSIGNMENT((#545));
#542=SURFACE_STYLE_USAGE(.BOTH.,#546);
#543=SURFACE_STYLE_USAGE(.BOTH.,#547);
#544=SURFACE_STYLE_USAGE(.BOTH.,#548);
#545=SURFACE_STYLE_USAGE(.BOTH.,#549);
#546=SURFACE_SIDE_STYLE('',(#550));
#547=SURFACE_SIDE_STYLE('',(#551));
#548=SURFACE_SIDE_STYLE('',(#552));
#549=SURFACE_SIDE_STYLE('',(#553));
#550=SURFACE_STYLE_FILL_AREA(#554);
#551=SURFACE_STYLE_FILL_AREA(#555);
#552=SURFACE_STYLE_FILL_AREA(#556);
#553=SURFACE_STYLE_FILL_AREA(#557);
#554=FILL_AREA_STYLE('',(#558));
#555=FILL_AREA_STYLE('',(#559));
#556=FILL_AREA_STYLE('',(#560));
#557=FILL_AREA_STYLE('',(#561));
#558=FILL_AREA_STYLE_COLOUR('',#562);
#559=FILL_AREA_STYLE_COLOUR('',#563);
#560=FILL_AREA_STYLE_COLOUR('',#564);
#561=FILL_AREA_STYLE_COLOUR('',#565);
#562=COLOUR_RGB('',0.305882352941176,0.305882352941176,0.305882352941176);
#563=COLOUR_RGB('',0.949019607843137,0.925490196078431,0.933333333333333);
#564=COLOUR_RGB('',0.282352941176471,0.27843137254902,0.23921568627451);
#565=COLOUR_RGB('',0.815686274509804,0.886274509803922,0.870588235294118);
ENDSEC;
END-ISO-10303-21;
