ISO-10303-21;
HEADER;
/* Generated by software containing ST-Developer
 * from STEP Tools, Inc. (www.steptools.com) 
 */

FILE_DESCRIPTION(
/* description */ (''),
/* implementation_level */ '2;1');

FILE_NAME(
/* name */ 
'X:\\3D-Zeichnungen\\Zusammenbau-Zeichnungen\\Kundenzeichnungen\\Daemp
fer\\B0N0\\B0N0XE1-250-550--004-000N\\Step\\B0N0XE1-250-550--004-000N.
stp',
/* time_stamp */ '2016-11-17T12:47:30+01:00',
/* author */ ('cadneu2'),
/* organization */ (''),
/* preprocessor_version */ 'ST-DEVELOPER v16.1',
/* originating_system */ 'Autodesk Inventor 2016',
/* authorisation */ '');

FILE_SCHEMA (('AUTOMOTIVE_DESIGN { 1 0 10303 214 3 1 1 }'));
ENDSEC;

DATA;
#10=MECHANICAL_DESIGN_GEOMETRIC_PRESENTATION_REPRESENTATION('',(#255,#261,
#260,#263,#259,#262,#253,#254,#256,#257,#258,#249,#247,#248,#250,#252,#243,
#244,#245,#246,#251),#535);
#11=ITEM_DEFINED_TRANSFORMATION($,$,#292,#341);
#12=ITEM_DEFINED_TRANSFORMATION($,$,#308,#342);
#13=ITEM_DEFINED_TRANSFORMATION($,$,#314,#343);
#14=ITEM_DEFINED_TRANSFORMATION($,$,#322,#344);
#15=(
REPRESENTATION_RELATIONSHIP($,$,#556,#560)
REPRESENTATION_RELATIONSHIP_WITH_TRANSFORMATION(#11)
SHAPE_REPRESENTATION_RELATIONSHIP()
);
#16=(
REPRESENTATION_RELATIONSHIP($,$,#557,#560)
REPRESENTATION_RELATIONSHIP_WITH_TRANSFORMATION(#12)
SHAPE_REPRESENTATION_RELATIONSHIP()
);
#17=(
REPRESENTATION_RELATIONSHIP($,$,#558,#560)
REPRESENTATION_RELATIONSHIP_WITH_TRANSFORMATION(#13)
SHAPE_REPRESENTATION_RELATIONSHIP()
);
#18=(
REPRESENTATION_RELATIONSHIP($,$,#559,#560)
REPRESENTATION_RELATIONSHIP_WITH_TRANSFORMATION(#14)
SHAPE_REPRESENTATION_RELATIONSHIP()
);
#19=CONTEXT_DEPENDENT_SHAPE_REPRESENTATION(#15,#552);
#20=CONTEXT_DEPENDENT_SHAPE_REPRESENTATION(#16,#553);
#21=CONTEXT_DEPENDENT_SHAPE_REPRESENTATION(#17,#554);
#22=CONTEXT_DEPENDENT_SHAPE_REPRESENTATION(#18,#555);
#23=NEXT_ASSEMBLY_USAGE_OCCURRENCE('Zylinder_22-296:1',
'Zylinder_22-296:1','Zylinder_22-296:1',#566,#562,'Zylinder_22-296:1');
#24=NEXT_ASSEMBLY_USAGE_OCCURRENCE('Kolbenstange_08-250:1',
'Kolbenstange_08-250:1','Kolbenstange_08-250:1',#566,#563,
'Kolbenstange_08-250:1');
#25=NEXT_ASSEMBLY_USAGE_OCCURRENCE('Gewindeanschlu\X\DF_B0:1',
'Gewindeanschlu\X\DF_B0:1','Gewindeanschlu\X\DF_B0:1',#566,#564,
'Gewindeanschlu\X\DF_B0:1');
#26=NEXT_ASSEMBLY_USAGE_OCCURRENCE('Gewindeanschlu\X\DF_M8x8_22:1',
'Gewindeanschlu\X\DF_M8x8_22:1','Gewindeanschlu\X\DF_M8x8_22:1',#566,#565,
'Gewindeanschlu\X\DF_M8x8_22:1');
#27=SHAPE_REPRESENTATION_RELATIONSHIP('SRR','None',#556,#31);
#28=SHAPE_REPRESENTATION_RELATIONSHIP('SRR','None',#557,#32);
#29=SHAPE_REPRESENTATION_RELATIONSHIP('SRR','None',#558,#33);
#30=SHAPE_REPRESENTATION_RELATIONSHIP('SRR','None',#559,#34);
#31=ADVANCED_BREP_SHAPE_REPRESENTATION('',(#35),#530);
#32=ADVANCED_BREP_SHAPE_REPRESENTATION('',(#36),#531);
#33=ADVANCED_BREP_SHAPE_REPRESENTATION('',(#37),#532);
#34=ADVANCED_BREP_SHAPE_REPRESENTATION('',(#38),#533);
#35=MANIFOLD_SOLID_BREP('Volumenk\X\F6rper1',#288);
#36=MANIFOLD_SOLID_BREP('Volumenk\X\F6rper2',#289);
#37=MANIFOLD_SOLID_BREP('Volumenk\X\F6rper2',#290);
#38=MANIFOLD_SOLID_BREP('Volumenk\X\F6rper1',#291);
#39=PLANE('',#306);
#40=PLANE('',#307);
#41=PLANE('',#309);
#42=PLANE('',#313);
#43=PLANE('',#315);
#44=PLANE('',#321);
#45=PLANE('',#328);
#46=PLANE('',#329);
#47=PLANE('',#339);
#48=TOROIDAL_SURFACE('',#302,6.67499999999978,4.325);
#49=TOROIDAL_SURFACE('',#333,6.65085110495295,4.35);
#50=CYLINDRICAL_SURFACE('',#296,8.39999999999979);
#51=CYLINDRICAL_SURFACE('',#304,10.9999999999998);
#52=CYLINDRICAL_SURFACE('',#311,4.00000000000002);
#53=CYLINDRICAL_SURFACE('',#319,4.);
#54=CYLINDRICAL_SURFACE('',#323,4.);
#55=CYLINDRICAL_SURFACE('',#331,11.);
#56=CYLINDRICAL_SURFACE('',#337,8.45000000000001);
#57=FACE_BOUND('',#98,.T.);
#58=FACE_BOUND('',#100,.T.);
#59=FACE_BOUND('',#102,.T.);
#60=FACE_BOUND('',#104,.T.);
#61=FACE_BOUND('',#106,.T.);
#62=FACE_BOUND('',#108,.T.);
#63=FACE_BOUND('',#113,.T.);
#64=FACE_BOUND('',#117,.T.);
#65=FACE_BOUND('',#119,.T.);
#66=FACE_BOUND('',#122,.T.);
#67=FACE_BOUND('',#124,.T.);
#68=FACE_BOUND('',#128,.T.);
#69=FACE_BOUND('',#130,.T.);
#70=FACE_BOUND('',#132,.T.);
#71=FACE_BOUND('',#134,.T.);
#72=FACE_BOUND('',#136,.T.);
#73=FACE_OUTER_BOUND('',#97,.T.);
#74=FACE_OUTER_BOUND('',#99,.T.);
#75=FACE_OUTER_BOUND('',#101,.T.);
#76=FACE_OUTER_BOUND('',#103,.T.);
#77=FACE_OUTER_BOUND('',#105,.T.);
#78=FACE_OUTER_BOUND('',#107,.T.);
#79=FACE_OUTER_BOUND('',#109,.T.);
#80=FACE_OUTER_BOUND('',#110,.T.);
#81=FACE_OUTER_BOUND('',#111,.T.);
#82=FACE_OUTER_BOUND('',#112,.T.);
#83=FACE_OUTER_BOUND('',#114,.T.);
#84=FACE_OUTER_BOUND('',#115,.T.);
#85=FACE_OUTER_BOUND('',#116,.T.);
#86=FACE_OUTER_BOUND('',#118,.T.);
#87=FACE_OUTER_BOUND('',#120,.T.);
#88=FACE_OUTER_BOUND('',#121,.T.);
#89=FACE_OUTER_BOUND('',#123,.T.);
#90=FACE_OUTER_BOUND('',#125,.T.);
#91=FACE_OUTER_BOUND('',#126,.T.);
#92=FACE_OUTER_BOUND('',#127,.T.);
#93=FACE_OUTER_BOUND('',#129,.T.);
#94=FACE_OUTER_BOUND('',#131,.T.);
#95=FACE_OUTER_BOUND('',#133,.T.);
#96=FACE_OUTER_BOUND('',#135,.T.);
#97=EDGE_LOOP('',(#197));
#98=EDGE_LOOP('',(#198));
#99=EDGE_LOOP('',(#199));
#100=EDGE_LOOP('',(#200));
#101=EDGE_LOOP('',(#201));
#102=EDGE_LOOP('',(#202));
#103=EDGE_LOOP('',(#203));
#104=EDGE_LOOP('',(#204));
#105=EDGE_LOOP('',(#205));
#106=EDGE_LOOP('',(#206));
#107=EDGE_LOOP('',(#207));
#108=EDGE_LOOP('',(#208));
#109=EDGE_LOOP('',(#209));
#110=EDGE_LOOP('',(#210));
#111=EDGE_LOOP('',(#211));
#112=EDGE_LOOP('',(#212));
#113=EDGE_LOOP('',(#213));
#114=EDGE_LOOP('',(#214));
#115=EDGE_LOOP('',(#215));
#116=EDGE_LOOP('',(#216));
#117=EDGE_LOOP('',(#217));
#118=EDGE_LOOP('',(#218));
#119=EDGE_LOOP('',(#219));
#120=EDGE_LOOP('',(#220));
#121=EDGE_LOOP('',(#221));
#122=EDGE_LOOP('',(#222));
#123=EDGE_LOOP('',(#223));
#124=EDGE_LOOP('',(#224));
#125=EDGE_LOOP('',(#225));
#126=EDGE_LOOP('',(#226));
#127=EDGE_LOOP('',(#227));
#128=EDGE_LOOP('',(#228));
#129=EDGE_LOOP('',(#229));
#130=EDGE_LOOP('',(#230));
#131=EDGE_LOOP('',(#231));
#132=EDGE_LOOP('',(#232));
#133=EDGE_LOOP('',(#233));
#134=EDGE_LOOP('',(#234));
#135=EDGE_LOOP('',(#235));
#136=EDGE_LOOP('',(#236));
#137=CIRCLE('',#294,8.39999999999979);
#138=CIRCLE('',#295,8.19999999999978);
#139=CIRCLE('',#297,8.39999999999979);
#140=CIRCLE('',#299,8.19999999999979);
#141=CIRCLE('',#301,7.6916786289709);
#142=CIRCLE('',#303,10.9999999999998);
#143=CIRCLE('',#305,10.9999999999998);
#144=CIRCLE('',#310,4.);
#145=CIRCLE('',#312,4.00000000000003);
#146=CIRCLE('',#316,3.5);
#147=CIRCLE('',#318,4.);
#148=CIRCLE('',#320,4.);
#149=CIRCLE('',#324,4.);
#150=CIRCLE('',#325,4.);
#151=CIRCLE('',#327,3.5);
#152=CIRCLE('',#330,11.);
#153=CIRCLE('',#332,11.);
#154=CIRCLE('',#334,7.64000000000001);
#155=CIRCLE('',#336,8.45000000000001);
#156=CIRCLE('',#338,8.45000000000001);
#157=VERTEX_POINT('',#453);
#158=VERTEX_POINT('',#455);
#159=VERTEX_POINT('',#458);
#160=VERTEX_POINT('',#461);
#161=VERTEX_POINT('',#464);
#162=VERTEX_POINT('',#467);
#163=VERTEX_POINT('',#470);
#164=VERTEX_POINT('',#476);
#165=VERTEX_POINT('',#479);
#166=VERTEX_POINT('',#484);
#167=VERTEX_POINT('',#487);
#168=VERTEX_POINT('',#490);
#169=VERTEX_POINT('',#495);
#170=VERTEX_POINT('',#497);
#171=VERTEX_POINT('',#500);
#172=VERTEX_POINT('',#504);
#173=VERTEX_POINT('',#507);
#174=VERTEX_POINT('',#510);
#175=VERTEX_POINT('',#513);
#176=VERTEX_POINT('',#516);
#177=EDGE_CURVE('',#157,#157,#137,.T.);
#178=EDGE_CURVE('',#158,#158,#138,.T.);
#179=EDGE_CURVE('',#159,#159,#139,.T.);
#180=EDGE_CURVE('',#160,#160,#140,.T.);
#181=EDGE_CURVE('',#161,#161,#141,.T.);
#182=EDGE_CURVE('',#162,#162,#142,.T.);
#183=EDGE_CURVE('',#163,#163,#143,.T.);
#184=EDGE_CURVE('',#164,#164,#144,.T.);
#185=EDGE_CURVE('',#165,#165,#145,.T.);
#186=EDGE_CURVE('',#166,#166,#146,.T.);
#187=EDGE_CURVE('',#167,#167,#147,.T.);
#188=EDGE_CURVE('',#168,#168,#148,.T.);
#189=EDGE_CURVE('',#169,#169,#149,.T.);
#190=EDGE_CURVE('',#170,#170,#150,.T.);
#191=EDGE_CURVE('',#171,#171,#151,.T.);
#192=EDGE_CURVE('',#172,#172,#152,.T.);
#193=EDGE_CURVE('',#173,#173,#153,.T.);
#194=EDGE_CURVE('',#174,#174,#154,.T.);
#195=EDGE_CURVE('',#175,#175,#155,.T.);
#196=EDGE_CURVE('',#176,#176,#156,.T.);
#197=ORIENTED_EDGE('',*,*,#177,.F.);
#198=ORIENTED_EDGE('',*,*,#178,.T.);
#199=ORIENTED_EDGE('',*,*,#179,.F.);
#200=ORIENTED_EDGE('',*,*,#177,.T.);
#201=ORIENTED_EDGE('',*,*,#180,.F.);
#202=ORIENTED_EDGE('',*,*,#179,.T.);
#203=ORIENTED_EDGE('',*,*,#181,.F.);
#204=ORIENTED_EDGE('',*,*,#180,.T.);
#205=ORIENTED_EDGE('',*,*,#182,.F.);
#206=ORIENTED_EDGE('',*,*,#181,.T.);
#207=ORIENTED_EDGE('',*,*,#183,.F.);
#208=ORIENTED_EDGE('',*,*,#182,.T.);
#209=ORIENTED_EDGE('',*,*,#183,.T.);
#210=ORIENTED_EDGE('',*,*,#178,.F.);
#211=ORIENTED_EDGE('',*,*,#184,.F.);
#212=ORIENTED_EDGE('',*,*,#185,.F.);
#213=ORIENTED_EDGE('',*,*,#184,.T.);
#214=ORIENTED_EDGE('',*,*,#185,.T.);
#215=ORIENTED_EDGE('',*,*,#186,.F.);
#216=ORIENTED_EDGE('',*,*,#187,.F.);
#217=ORIENTED_EDGE('',*,*,#186,.T.);
#218=ORIENTED_EDGE('',*,*,#188,.F.);
#219=ORIENTED_EDGE('',*,*,#187,.T.);
#220=ORIENTED_EDGE('',*,*,#188,.T.);
#221=ORIENTED_EDGE('',*,*,#189,.F.);
#222=ORIENTED_EDGE('',*,*,#190,.T.);
#223=ORIENTED_EDGE('',*,*,#191,.F.);
#224=ORIENTED_EDGE('',*,*,#189,.T.);
#225=ORIENTED_EDGE('',*,*,#191,.T.);
#226=ORIENTED_EDGE('',*,*,#192,.F.);
#227=ORIENTED_EDGE('',*,*,#193,.F.);
#228=ORIENTED_EDGE('',*,*,#192,.T.);
#229=ORIENTED_EDGE('',*,*,#194,.F.);
#230=ORIENTED_EDGE('',*,*,#193,.T.);
#231=ORIENTED_EDGE('',*,*,#195,.F.);
#232=ORIENTED_EDGE('',*,*,#194,.T.);
#233=ORIENTED_EDGE('',*,*,#196,.F.);
#234=ORIENTED_EDGE('',*,*,#195,.T.);
#235=ORIENTED_EDGE('',*,*,#196,.T.);
#236=ORIENTED_EDGE('',*,*,#190,.F.);
#237=CONICAL_SURFACE('',#293,8.29999999999979,45.000000000004);
#238=CONICAL_SURFACE('',#298,8.29999999999979,44.9999999999999);
#239=CONICAL_SURFACE('',#300,7.94583931448535,83.9999999999988);
#240=CONICAL_SURFACE('',#317,3.75,45.0000000000001);
#241=CONICAL_SURFACE('',#326,3.75,44.9999999999998);
#242=CONICAL_SURFACE('',#335,8.04500000000001,75.);
#243=STYLED_ITEM('',(#586),#264);
#244=STYLED_ITEM('',(#586),#265);
#245=STYLED_ITEM('',(#586),#266);
#246=STYLED_ITEM('',(#586),#267);
#247=STYLED_ITEM('',(#585),#268);
#248=STYLED_ITEM('',(#585),#269);
#249=STYLED_ITEM('',(#585),#270);
#250=STYLED_ITEM('',(#586),#271);
#251=STYLED_ITEM('',(#585),#35);
#252=STYLED_ITEM('',(#585),#36);
#253=STYLED_ITEM('',(#585),#37);
#254=STYLED_ITEM('',(#586),#279);
#255=STYLED_ITEM('',(#586),#280);
#256=STYLED_ITEM('',(#586),#281);
#257=STYLED_ITEM('',(#585),#282);
#258=STYLED_ITEM('',(#585),#283);
#259=STYLED_ITEM('',(#585),#284);
#260=STYLED_ITEM('',(#586),#285);
#261=STYLED_ITEM('',(#586),#286);
#262=STYLED_ITEM('',(#586),#287);
#263=STYLED_ITEM('',(#585),#38);
#264=ADVANCED_FACE('',(#73,#57),#237,.T.);
#265=ADVANCED_FACE('',(#74,#58),#50,.T.);
#266=ADVANCED_FACE('',(#75,#59),#238,.T.);
#267=ADVANCED_FACE('',(#76,#60),#239,.T.);
#268=ADVANCED_FACE('',(#77,#61),#48,.T.);
#269=ADVANCED_FACE('',(#78,#62),#51,.T.);
#270=ADVANCED_FACE('',(#79),#39,.T.);
#271=ADVANCED_FACE('',(#80),#40,.T.);
#272=ADVANCED_FACE('',(#81),#41,.T.);
#273=ADVANCED_FACE('',(#82,#63),#52,.T.);
#274=ADVANCED_FACE('',(#83),#42,.T.);
#275=ADVANCED_FACE('',(#84),#43,.T.);
#276=ADVANCED_FACE('',(#85,#64),#240,.T.);
#277=ADVANCED_FACE('',(#86,#65),#53,.T.);
#278=ADVANCED_FACE('',(#87),#44,.T.);
#279=ADVANCED_FACE('',(#88,#66),#54,.T.);
#280=ADVANCED_FACE('',(#89,#67),#241,.T.);
#281=ADVANCED_FACE('',(#90),#45,.T.);
#282=ADVANCED_FACE('',(#91),#46,.T.);
#283=ADVANCED_FACE('',(#92,#68),#55,.T.);
#284=ADVANCED_FACE('',(#93,#69),#49,.T.);
#285=ADVANCED_FACE('',(#94,#70),#242,.T.);
#286=ADVANCED_FACE('',(#95,#71),#56,.T.);
#287=ADVANCED_FACE('',(#96,#72),#47,.T.);
#288=CLOSED_SHELL('',(#264,#265,#266,#267,#268,#269,#270,#271));
#289=CLOSED_SHELL('',(#272,#273,#274));
#290=CLOSED_SHELL('',(#275,#276,#277,#278));
#291=CLOSED_SHELL('',(#279,#280,#281,#282,#283,#284,#285,#286,#287));
#292=AXIS2_PLACEMENT_3D('placement',#451,#345,#346);
#293=AXIS2_PLACEMENT_3D('',#452,#347,#348);
#294=AXIS2_PLACEMENT_3D('',#454,#349,#350);
#295=AXIS2_PLACEMENT_3D('',#456,#351,#352);
#296=AXIS2_PLACEMENT_3D('',#457,#353,#354);
#297=AXIS2_PLACEMENT_3D('',#459,#355,#356);
#298=AXIS2_PLACEMENT_3D('',#460,#357,#358);
#299=AXIS2_PLACEMENT_3D('',#462,#359,#360);
#300=AXIS2_PLACEMENT_3D('',#463,#361,#362);
#301=AXIS2_PLACEMENT_3D('',#465,#363,#364);
#302=AXIS2_PLACEMENT_3D('',#466,#365,#366);
#303=AXIS2_PLACEMENT_3D('',#468,#367,#368);
#304=AXIS2_PLACEMENT_3D('',#469,#369,#370);
#305=AXIS2_PLACEMENT_3D('',#471,#371,#372);
#306=AXIS2_PLACEMENT_3D('',#472,#373,#374);
#307=AXIS2_PLACEMENT_3D('',#473,#375,#376);
#308=AXIS2_PLACEMENT_3D('placement',#474,#377,#378);
#309=AXIS2_PLACEMENT_3D('',#475,#379,#380);
#310=AXIS2_PLACEMENT_3D('',#477,#381,#382);
#311=AXIS2_PLACEMENT_3D('',#478,#383,#384);
#312=AXIS2_PLACEMENT_3D('',#480,#385,#386);
#313=AXIS2_PLACEMENT_3D('',#481,#387,#388);
#314=AXIS2_PLACEMENT_3D('placement',#482,#389,#390);
#315=AXIS2_PLACEMENT_3D('',#483,#391,#392);
#316=AXIS2_PLACEMENT_3D('',#485,#393,#394);
#317=AXIS2_PLACEMENT_3D('',#486,#395,#396);
#318=AXIS2_PLACEMENT_3D('',#488,#397,#398);
#319=AXIS2_PLACEMENT_3D('',#489,#399,#400);
#320=AXIS2_PLACEMENT_3D('',#491,#401,#402);
#321=AXIS2_PLACEMENT_3D('',#492,#403,#404);
#322=AXIS2_PLACEMENT_3D('placement',#493,#405,#406);
#323=AXIS2_PLACEMENT_3D('',#494,#407,#408);
#324=AXIS2_PLACEMENT_3D('',#496,#409,#410);
#325=AXIS2_PLACEMENT_3D('',#498,#411,#412);
#326=AXIS2_PLACEMENT_3D('',#499,#413,#414);
#327=AXIS2_PLACEMENT_3D('',#501,#415,#416);
#328=AXIS2_PLACEMENT_3D('',#502,#417,#418);
#329=AXIS2_PLACEMENT_3D('',#503,#419,#420);
#330=AXIS2_PLACEMENT_3D('',#505,#421,#422);
#331=AXIS2_PLACEMENT_3D('',#506,#423,#424);
#332=AXIS2_PLACEMENT_3D('',#508,#425,#426);
#333=AXIS2_PLACEMENT_3D('',#509,#427,#428);
#334=AXIS2_PLACEMENT_3D('',#511,#429,#430);
#335=AXIS2_PLACEMENT_3D('',#512,#431,#432);
#336=AXIS2_PLACEMENT_3D('',#514,#433,#434);
#337=AXIS2_PLACEMENT_3D('',#515,#435,#436);
#338=AXIS2_PLACEMENT_3D('',#517,#437,#438);
#339=AXIS2_PLACEMENT_3D('',#518,#439,#440);
#340=AXIS2_PLACEMENT_3D('placement',#519,#441,#442);
#341=AXIS2_PLACEMENT_3D('',#520,#443,#444);
#342=AXIS2_PLACEMENT_3D('',#521,#445,#446);
#343=AXIS2_PLACEMENT_3D('',#522,#447,#448);
#344=AXIS2_PLACEMENT_3D('',#523,#449,#450);
#345=DIRECTION('axis',(0.,0.,1.));
#346=DIRECTION('refdir',(1.,0.,0.));
#347=DIRECTION('center_axis',(1.,0.,0.));
#348=DIRECTION('ref_axis',(1.04179325582754E-16,1.,0.));
#349=DIRECTION('center_axis',(1.,0.,0.));
#350=DIRECTION('ref_axis',(1.04179325582754E-16,1.,0.));
#351=DIRECTION('center_axis',(1.,0.,0.));
#352=DIRECTION('ref_axis',(1.04179325582754E-16,1.,0.));
#353=DIRECTION('center_axis',(1.,0.,0.));
#354=DIRECTION('ref_axis',(1.04179325582754E-16,1.,0.));
#355=DIRECTION('center_axis',(1.,0.,0.));
#356=DIRECTION('ref_axis',(1.04179325582754E-16,1.,0.));
#357=DIRECTION('center_axis',(-1.,0.,0.));
#358=DIRECTION('ref_axis',(1.04179325582754E-16,1.,0.));
#359=DIRECTION('center_axis',(1.,0.,0.));
#360=DIRECTION('ref_axis',(1.04179325582754E-16,1.,0.));
#361=DIRECTION('center_axis',(-1.,0.,0.));
#362=DIRECTION('ref_axis',(1.04179325582754E-16,1.,0.));
#363=DIRECTION('center_axis',(1.,0.,0.));
#364=DIRECTION('ref_axis',(1.04179325582754E-16,1.,0.));
#365=DIRECTION('center_axis',(1.,0.,0.));
#366=DIRECTION('ref_axis',(0.,0.,-1.));
#367=DIRECTION('center_axis',(1.,0.,0.));
#368=DIRECTION('ref_axis',(1.04179325582754E-16,1.,0.));
#369=DIRECTION('center_axis',(1.,0.,0.));
#370=DIRECTION('ref_axis',(1.04179325582754E-16,1.,0.));
#371=DIRECTION('center_axis',(1.,0.,0.));
#372=DIRECTION('ref_axis',(1.04179325582754E-16,1.,0.));
#373=DIRECTION('center_axis',(1.,0.,0.));
#374=DIRECTION('ref_axis',(0.,0.,-1.));
#375=DIRECTION('center_axis',(-1.,0.,0.));
#376=DIRECTION('ref_axis',(0.,0.,1.));
#377=DIRECTION('axis',(0.,0.,1.));
#378=DIRECTION('refdir',(1.,0.,0.));
#379=DIRECTION('center_axis',(-1.,0.,0.));
#380=DIRECTION('ref_axis',(0.,0.,1.));
#381=DIRECTION('center_axis',(1.,0.,0.));
#382=DIRECTION('ref_axis',(0.,1.,0.));
#383=DIRECTION('center_axis',(1.,0.,0.));
#384=DIRECTION('ref_axis',(0.,1.,0.));
#385=DIRECTION('center_axis',(1.,0.,0.));
#386=DIRECTION('ref_axis',(0.,1.,0.));
#387=DIRECTION('center_axis',(1.,0.,0.));
#388=DIRECTION('ref_axis',(0.,0.,-1.));
#389=DIRECTION('axis',(0.,0.,1.));
#390=DIRECTION('refdir',(1.,0.,0.));
#391=DIRECTION('center_axis',(-1.,0.,0.));
#392=DIRECTION('ref_axis',(0.,0.,1.));
#393=DIRECTION('center_axis',(1.,0.,0.));
#394=DIRECTION('ref_axis',(0.,1.,0.));
#395=DIRECTION('center_axis',(1.,0.,0.));
#396=DIRECTION('ref_axis',(0.,1.,0.));
#397=DIRECTION('center_axis',(1.,0.,0.));
#398=DIRECTION('ref_axis',(0.,1.,0.));
#399=DIRECTION('center_axis',(1.,0.,0.));
#400=DIRECTION('ref_axis',(0.,1.,0.));
#401=DIRECTION('center_axis',(1.,0.,0.));
#402=DIRECTION('ref_axis',(0.,1.,0.));
#403=DIRECTION('center_axis',(1.,0.,0.));
#404=DIRECTION('ref_axis',(0.,0.,-1.));
#405=DIRECTION('axis',(0.,0.,1.));
#406=DIRECTION('refdir',(1.,0.,0.));
#407=DIRECTION('center_axis',(1.,0.,0.));
#408=DIRECTION('ref_axis',(0.,1.,0.));
#409=DIRECTION('center_axis',(1.,0.,0.));
#410=DIRECTION('ref_axis',(0.,1.,0.));
#411=DIRECTION('center_axis',(1.,0.,0.));
#412=DIRECTION('ref_axis',(0.,1.,0.));
#413=DIRECTION('center_axis',(-1.,0.,0.));
#414=DIRECTION('ref_axis',(0.,1.,0.));
#415=DIRECTION('center_axis',(1.,0.,0.));
#416=DIRECTION('ref_axis',(0.,1.,0.));
#417=DIRECTION('center_axis',(1.,0.,0.));
#418=DIRECTION('ref_axis',(0.,0.,-1.));
#419=DIRECTION('center_axis',(-1.,0.,0.));
#420=DIRECTION('ref_axis',(0.,0.,1.));
#421=DIRECTION('center_axis',(1.,0.,0.));
#422=DIRECTION('ref_axis',(0.,1.,0.));
#423=DIRECTION('center_axis',(1.,0.,0.));
#424=DIRECTION('ref_axis',(0.,1.,0.));
#425=DIRECTION('center_axis',(1.,0.,0.));
#426=DIRECTION('ref_axis',(0.,1.,0.));
#427=DIRECTION('center_axis',(1.,0.,0.));
#428=DIRECTION('ref_axis',(0.,0.,-1.));
#429=DIRECTION('center_axis',(1.,0.,0.));
#430=DIRECTION('ref_axis',(0.,1.,0.));
#431=DIRECTION('center_axis',(1.,0.,0.));
#432=DIRECTION('ref_axis',(0.,1.,0.));
#433=DIRECTION('center_axis',(1.,0.,0.));
#434=DIRECTION('ref_axis',(0.,1.,0.));
#435=DIRECTION('center_axis',(1.,0.,0.));
#436=DIRECTION('ref_axis',(0.,1.,0.));
#437=DIRECTION('center_axis',(1.,0.,0.));
#438=DIRECTION('ref_axis',(0.,1.,0.));
#439=DIRECTION('center_axis',(1.,0.,0.));
#440=DIRECTION('ref_axis',(0.,0.,-1.));
#441=DIRECTION('axis',(0.,0.,1.));
#442=DIRECTION('refdir',(1.,0.,0.));
#443=DIRECTION('',(0.,0.,1.));
#444=DIRECTION('',(1.,0.,0.));
#445=DIRECTION('',(0.,0.,1.));
#446=DIRECTION('',(1.,0.,0.));
#447=DIRECTION('',(0.,0.,1.));
#448=DIRECTION('',(1.,0.,0.));
#449=DIRECTION('',(0.,0.,1.));
#450=DIRECTION('',(1.,0.,0.));
#451=CARTESIAN_POINT('',(0.,0.,0.));
#452=CARTESIAN_POINT('Origin',(0.100000000000009,0.,0.));
#453=CARTESIAN_POINT('',(0.200000000000003,8.39999999999979,0.));
#454=CARTESIAN_POINT('Origin',(0.200000000000003,0.,0.));
#455=CARTESIAN_POINT('',(1.4210854715202E-14,8.19999999999978,0.));
#456=CARTESIAN_POINT('Origin',(1.4210854715202E-14,0.,0.));
#457=CARTESIAN_POINT('Origin',(0.441515919175096,0.,0.));
#458=CARTESIAN_POINT('',(0.683031838350189,8.39999999999979,0.));
#459=CARTESIAN_POINT('Origin',(0.683031838350189,0.,0.));
#460=CARTESIAN_POINT('Origin',(0.783031838350189,0.,0.));
#461=CARTESIAN_POINT('',(0.88303183835019,8.19999999999979,0.));
#462=CARTESIAN_POINT('Origin',(0.88303183835019,0.,0.));
#463=CARTESIAN_POINT('Origin',(0.909745202835791,0.,0.));
#464=CARTESIAN_POINT('',(0.936458567321393,7.6916786289709,0.));
#465=CARTESIAN_POINT('Origin',(0.936458567321393,0.,0.));
#466=CARTESIAN_POINT('Origin',(5.14026512393094,0.,0.));
#467=CARTESIAN_POINT('',(5.14026512393094,10.9999999999998,0.));
#468=CARTESIAN_POINT('Origin',(5.14026512393094,0.,0.));
#469=CARTESIAN_POINT('Origin',(147.570132561965,0.,0.));
#470=CARTESIAN_POINT('',(290.,10.9999999999998,0.));
#471=CARTESIAN_POINT('Origin',(290.,0.,0.));
#472=CARTESIAN_POINT('Origin',(290.,5.49999999999991,0.));
#473=CARTESIAN_POINT('Origin',(0.,4.09999999999977,0.));
#474=CARTESIAN_POINT('',(0.,0.,0.));
#475=CARTESIAN_POINT('Origin',(-6.12323399573677E-16,2.,0.));
#476=CARTESIAN_POINT('',(-1.22464679914735E-15,4.,0.));
#477=CARTESIAN_POINT('Origin',(0.,0.,0.));
#478=CARTESIAN_POINT('Origin',(127.,0.,0.));
#479=CARTESIAN_POINT('',(254.,4.00000000000003,0.));
#480=CARTESIAN_POINT('Origin',(254.,0.,0.));
#481=CARTESIAN_POINT('Origin',(254.,2.00000000000002,0.));
#482=CARTESIAN_POINT('',(0.,0.,0.));
#483=CARTESIAN_POINT('Origin',(-9.,1.75,0.));
#484=CARTESIAN_POINT('',(-9.,3.5,0.));
#485=CARTESIAN_POINT('Origin',(-9.,0.,0.));
#486=CARTESIAN_POINT('Origin',(-8.75,0.,0.));
#487=CARTESIAN_POINT('',(-8.5,4.,0.));
#488=CARTESIAN_POINT('Origin',(-8.5,0.,0.));
#489=CARTESIAN_POINT('Origin',(-4.25,0.,0.));
#490=CARTESIAN_POINT('',(-1.22464679914735E-15,4.,0.));
#491=CARTESIAN_POINT('Origin',(-1.11022302462516E-15,0.,0.));
#492=CARTESIAN_POINT('Origin',(-6.12323399573677E-16,2.,0.));
#493=CARTESIAN_POINT('',(0.,0.,0.));
#494=CARTESIAN_POINT('Origin',(9.75,0.,0.));
#495=CARTESIAN_POINT('',(13.5,4.,0.));
#496=CARTESIAN_POINT('Origin',(13.5,0.,0.));
#497=CARTESIAN_POINT('',(6.,4.,0.));
#498=CARTESIAN_POINT('Origin',(6.,0.,0.));
#499=CARTESIAN_POINT('Origin',(13.75,0.,0.));
#500=CARTESIAN_POINT('',(14.,3.5,0.));
#501=CARTESIAN_POINT('Origin',(14.,0.,0.));
#502=CARTESIAN_POINT('Origin',(14.,1.75,0.));
#503=CARTESIAN_POINT('Origin',(0.,5.5,0.));
#504=CARTESIAN_POINT('',(0.,11.,0.));
#505=CARTESIAN_POINT('Origin',(0.,0.,0.));
#506=CARTESIAN_POINT('Origin',(0.375,0.,0.));
#507=CARTESIAN_POINT('',(0.749999999999999,11.,0.));
#508=CARTESIAN_POINT('Origin',(0.75,0.,0.));
#509=CARTESIAN_POINT('Origin',(0.663954147624557,0.,0.));
#510=CARTESIAN_POINT('',(4.9,7.64000000000001,0.));
#511=CARTESIAN_POINT('Origin',(4.9,0.,0.));
#512=CARTESIAN_POINT('Origin',(5.00851942293461,0.,0.));
#513=CARTESIAN_POINT('',(5.11703884586921,8.45000000000001,0.));
#514=CARTESIAN_POINT('Origin',(5.11703884586921,0.,0.));
#515=CARTESIAN_POINT('Origin',(5.55851942293461,0.,0.));
#516=CARTESIAN_POINT('',(6.,8.45000000000001,0.));
#517=CARTESIAN_POINT('Origin',(6.,0.,0.));
#518=CARTESIAN_POINT('Origin',(6.,6.225,0.));
#519=CARTESIAN_POINT('',(0.,0.,0.));
#520=CARTESIAN_POINT('',(0.,0.,0.));
#521=CARTESIAN_POINT('',(-254.,1.56268988374131E-14,0.));
#522=CARTESIAN_POINT('',(-254.,1.56268988374131E-14,0.));
#523=CARTESIAN_POINT('',(290.,1.45851055815855E-14,0.));
#524=UNCERTAINTY_MEASURE_WITH_UNIT(LENGTH_MEASURE(0.01),#536,
'DISTANCE_ACCURACY_VALUE',
'Maximum model space distance between geometric entities at asserted c
onnectivities');
#525=UNCERTAINTY_MEASURE_WITH_UNIT(LENGTH_MEASURE(0.01),#536,
'DISTANCE_ACCURACY_VALUE',
'Maximum model space distance between geometric entities at asserted c
onnectivities');
#526=UNCERTAINTY_MEASURE_WITH_UNIT(LENGTH_MEASURE(0.01),#536,
'DISTANCE_ACCURACY_VALUE',
'Maximum model space distance between geometric entities at asserted c
onnectivities');
#527=UNCERTAINTY_MEASURE_WITH_UNIT(LENGTH_MEASURE(0.01),#536,
'DISTANCE_ACCURACY_VALUE',
'Maximum model space distance between geometric entities at asserted c
onnectivities');
#528=UNCERTAINTY_MEASURE_WITH_UNIT(LENGTH_MEASURE(0.01),#536,
'DISTANCE_ACCURACY_VALUE',
'Maximum model space distance between geometric entities at asserted c
onnectivities');
#529=UNCERTAINTY_MEASURE_WITH_UNIT(LENGTH_MEASURE(1.E-6),#536,
'DISTANCE_ACCURACY_VALUE',
'Maximum model space distance between geometric entities at asserted c
onnectivities');
#530=(
GEOMETRIC_REPRESENTATION_CONTEXT(3)
GLOBAL_UNCERTAINTY_ASSIGNED_CONTEXT((#524))
GLOBAL_UNIT_ASSIGNED_CONTEXT((#536,#539,#537))
REPRESENTATION_CONTEXT('','3D')
);
#531=(
GEOMETRIC_REPRESENTATION_CONTEXT(3)
GLOBAL_UNCERTAINTY_ASSIGNED_CONTEXT((#525))
GLOBAL_UNIT_ASSIGNED_CONTEXT((#536,#539,#537))
REPRESENTATION_CONTEXT('','3D')
);
#532=(
GEOMETRIC_REPRESENTATION_CONTEXT(3)
GLOBAL_UNCERTAINTY_ASSIGNED_CONTEXT((#526))
GLOBAL_UNIT_ASSIGNED_CONTEXT((#536,#539,#537))
REPRESENTATION_CONTEXT('','3D')
);
#533=(
GEOMETRIC_REPRESENTATION_CONTEXT(3)
GLOBAL_UNCERTAINTY_ASSIGNED_CONTEXT((#527))
GLOBAL_UNIT_ASSIGNED_CONTEXT((#536,#539,#537))
REPRESENTATION_CONTEXT('','3D')
);
#534=(
GEOMETRIC_REPRESENTATION_CONTEXT(3)
GLOBAL_UNCERTAINTY_ASSIGNED_CONTEXT((#528))
GLOBAL_UNIT_ASSIGNED_CONTEXT((#536,#539,#537))
REPRESENTATION_CONTEXT('','3D')
);
#535=(
GEOMETRIC_REPRESENTATION_CONTEXT(3)
GLOBAL_UNCERTAINTY_ASSIGNED_CONTEXT((#529))
GLOBAL_UNIT_ASSIGNED_CONTEXT((#536,#539,#537))
REPRESENTATION_CONTEXT('','3D')
);
#536=(
LENGTH_UNIT()
NAMED_UNIT(*)
SI_UNIT(.MILLI.,.METRE.)
);
#537=(
NAMED_UNIT(*)
SI_UNIT($,.STERADIAN.)
SOLID_ANGLE_UNIT()
);
#538=DIMENSIONAL_EXPONENTS(0.,0.,0.,0.,0.,0.,0.);
#539=(
CONVERSION_BASED_UNIT('degree',#541)
NAMED_UNIT(#538)
PLANE_ANGLE_UNIT()
);
#540=(
NAMED_UNIT(*)
PLANE_ANGLE_UNIT()
SI_UNIT($,.RADIAN.)
);
#541=PLANE_ANGLE_MEASURE_WITH_UNIT(PLANE_ANGLE_MEASURE(0.01745329252),#540);
#542=SHAPE_DEFINITION_REPRESENTATION(#547,#556);
#543=SHAPE_DEFINITION_REPRESENTATION(#548,#557);
#544=SHAPE_DEFINITION_REPRESENTATION(#549,#558);
#545=SHAPE_DEFINITION_REPRESENTATION(#550,#559);
#546=SHAPE_DEFINITION_REPRESENTATION(#551,#560);
#547=PRODUCT_DEFINITION_SHAPE('',$,#562);
#548=PRODUCT_DEFINITION_SHAPE('',$,#563);
#549=PRODUCT_DEFINITION_SHAPE('',$,#564);
#550=PRODUCT_DEFINITION_SHAPE('',$,#565);
#551=PRODUCT_DEFINITION_SHAPE('',$,#566);
#552=PRODUCT_DEFINITION_SHAPE($,$,#23);
#553=PRODUCT_DEFINITION_SHAPE($,$,#24);
#554=PRODUCT_DEFINITION_SHAPE($,$,#25);
#555=PRODUCT_DEFINITION_SHAPE($,$,#26);
#556=SHAPE_REPRESENTATION('',(#292),#530);
#557=SHAPE_REPRESENTATION('',(#308),#531);
#558=SHAPE_REPRESENTATION('',(#314),#532);
#559=SHAPE_REPRESENTATION('',(#322),#533);
#560=SHAPE_REPRESENTATION('',(#340,#341,#342,#343,#344),#534);
#561=PRODUCT_DEFINITION_CONTEXT('part definition',#578,'design');
#562=PRODUCT_DEFINITION('Zylinder_22-296','Zylinder_22-296',#567,#561);
#563=PRODUCT_DEFINITION('Kolbenstange_08-250','Kolbenstange_08-250',#568,
#561);
#564=PRODUCT_DEFINITION('Gewindeanschlu\X\DF_B0','Gewindeanschlu\X\DF_
B0',#569,#561);
#565=PRODUCT_DEFINITION('Gewindeanschlu\X\DF_M8x8_22',
'Gewindeanschlu\X\DF_M8x8_22',#570,#561);
#566=PRODUCT_DEFINITION('B0N0XE1-250-550--004-000N',
'B0N0XE1-250-550--004-000N',#571,#561);
#567=PRODUCT_DEFINITION_FORMATION('',$,#580);
#568=PRODUCT_DEFINITION_FORMATION('',$,#581);
#569=PRODUCT_DEFINITION_FORMATION('',$,#582);
#570=PRODUCT_DEFINITION_FORMATION('',$,#583);
#571=PRODUCT_DEFINITION_FORMATION('',$,#584);
#572=PRODUCT_RELATED_PRODUCT_CATEGORY('Zylinder_22-296',
'Zylinder_22-296',(#580));
#573=PRODUCT_RELATED_PRODUCT_CATEGORY('Kolbenstange_08-250',
'Kolbenstange_08-250',(#581));
#574=PRODUCT_RELATED_PRODUCT_CATEGORY('Gewindeanschlu\X\DF_B0',
'Gewindeanschlu\X\DF_B0',(#582));
#575=PRODUCT_RELATED_PRODUCT_CATEGORY('Gewindeanschlu\X\DF_M8x8_22',
'Gewindeanschlu\X\DF_M8x8_22',(#583));
#576=PRODUCT_RELATED_PRODUCT_CATEGORY('B0N0XE1-250-550--004-000N',
'B0N0XE1-250-550--004-000N',(#584));
#577=APPLICATION_PROTOCOL_DEFINITION('international standard',
'automotive_design',2009,#578);
#578=APPLICATION_CONTEXT(
'Core Data for Automotive Mechanical Design Process');
#579=PRODUCT_CONTEXT('part definition',#578,'mechanical');
#580=PRODUCT('Zylinder_22-296','Zylinder_22-296',$,(#579));
#581=PRODUCT('Kolbenstange_08-250','Kolbenstange_08-250',$,(#579));
#582=PRODUCT('Gewindeanschlu\X\DF_B0','Gewindeanschlu\X\DF_B0',$,(#579));
#583=PRODUCT('Gewindeanschlu\X\DF_M8x8_22','Gewindeanschlu\X\DF_M8x8_2
2',$,(#579));
#584=PRODUCT('B0N0XE1-250-550--004-000N','B0N0XE1-250-550--004-000N',$,
(#579));
#585=PRESENTATION_STYLE_ASSIGNMENT((#587));
#586=PRESENTATION_STYLE_ASSIGNMENT((#588));
#587=SURFACE_STYLE_USAGE(.BOTH.,#589);
#588=SURFACE_STYLE_USAGE(.BOTH.,#590);
#589=SURFACE_SIDE_STYLE('',(#591));
#590=SURFACE_SIDE_STYLE('',(#592));
#591=SURFACE_STYLE_FILL_AREA(#593);
#592=SURFACE_STYLE_FILL_AREA(#594);
#593=FILL_AREA_STYLE('',(#595));
#594=FILL_AREA_STYLE('',(#596));
#595=FILL_AREA_STYLE_COLOUR('',#597);
#596=FILL_AREA_STYLE_COLOUR('',#598);
#597=COLOUR_RGB('',0.305882352941176,0.305882352941176,0.305882352941176);
#598=COLOUR_RGB('',0.949019607843137,0.925490196078431,0.933333333333333);
ENDSEC;
END-ISO-10303-21;
