ISO-10303-21;
HEADER;
/* Generated by software containing ST-Developer
 * from STEP Tools, Inc. (www.steptools.com) 
 */

FILE_DESCRIPTION(
/* description */ (''),
/* implementation_level */ '2;1');

FILE_NAME(
/* name */ 
'X:\\3D-Zeichnungen\\Zusammenbau-Zeichungen\\Kundenzeichnungen\\Daempf
er\\B0N0XB1-050-150--004-000N\\Step-Datei\\B0N0XB1-050-150--004-000N.s
tp',
/* time_stamp */ '2014-09-17T12:48:24+02:00',
/* author */ ('CADNEU'),
/* organization */ (''),
/* preprocessor_version */ 'ST-DEVELOPER v15.2',
/* originating_system */ 'Autodesk Inventor 2014',
/* authorisation */ '');

FILE_SCHEMA (('AUTOMOTIVE_DESIGN { 1 0 10303 214 3 1 1 }'));
ENDSEC;

DATA;
#10=ITEM_DEFINED_TRANSFORMATION($,$,#291,#340);
#11=ITEM_DEFINED_TRANSFORMATION($,$,#307,#341);
#12=ITEM_DEFINED_TRANSFORMATION($,$,#313,#342);
#13=ITEM_DEFINED_TRANSFORMATION($,$,#321,#343);
#14=(
REPRESENTATION_RELATIONSHIP($,$,#553,#557)
REPRESENTATION_RELATIONSHIP_WITH_TRANSFORMATION(#10)
SHAPE_REPRESENTATION_RELATIONSHIP()
);
#15=(
REPRESENTATION_RELATIONSHIP($,$,#554,#557)
REPRESENTATION_RELATIONSHIP_WITH_TRANSFORMATION(#11)
SHAPE_REPRESENTATION_RELATIONSHIP()
);
#16=(
REPRESENTATION_RELATIONSHIP($,$,#555,#557)
REPRESENTATION_RELATIONSHIP_WITH_TRANSFORMATION(#12)
SHAPE_REPRESENTATION_RELATIONSHIP()
);
#17=(
REPRESENTATION_RELATIONSHIP($,$,#556,#557)
REPRESENTATION_RELATIONSHIP_WITH_TRANSFORMATION(#13)
SHAPE_REPRESENTATION_RELATIONSHIP()
);
#18=CONTEXT_DEPENDENT_SHAPE_REPRESENTATION(#14,#549);
#19=CONTEXT_DEPENDENT_SHAPE_REPRESENTATION(#15,#550);
#20=CONTEXT_DEPENDENT_SHAPE_REPRESENTATION(#16,#551);
#21=CONTEXT_DEPENDENT_SHAPE_REPRESENTATION(#17,#552);
#22=NEXT_ASSEMBLY_USAGE_OCCURRENCE('Zylinder_22:1',$,$,#563,#559,$);
#23=NEXT_ASSEMBLY_USAGE_OCCURRENCE('Kolbenstange_08:1',$,$,#563,#560,$);
#24=NEXT_ASSEMBLY_USAGE_OCCURRENCE('Gewindeanschlu\X\DF_B0:1',$,$,#563,
#561,$);
#25=NEXT_ASSEMBLY_USAGE_OCCURRENCE('Gewindeanschlu\X\DF_M8x8_22:1',$,$,
#563,#562,$);
#26=SHAPE_REPRESENTATION_RELATIONSHIP('SRR','None',#553,#30);
#27=SHAPE_REPRESENTATION_RELATIONSHIP('SRR','None',#554,#31);
#28=SHAPE_REPRESENTATION_RELATIONSHIP('SRR','None',#555,#32);
#29=SHAPE_REPRESENTATION_RELATIONSHIP('SRR','None',#556,#33);
#30=ADVANCED_BREP_SHAPE_REPRESENTATION($,(#287),#528);
#31=ADVANCED_BREP_SHAPE_REPRESENTATION($,(#288),#529);
#32=ADVANCED_BREP_SHAPE_REPRESENTATION($,(#289),#530);
#33=ADVANCED_BREP_SHAPE_REPRESENTATION($,(#290),#531);
#34=PLANE($,#305);
#35=PLANE($,#306);
#36=PLANE($,#308);
#37=PLANE($,#312);
#38=PLANE($,#314);
#39=PLANE($,#320);
#40=PLANE($,#327);
#41=PLANE($,#328);
#42=PLANE($,#338);
#43=TOROIDAL_SURFACE($,#301,6.67499999999978,4.325);
#44=TOROIDAL_SURFACE($,#332,6.65085110495295,4.35);
#45=CYLINDRICAL_SURFACE($,#295,8.39999999999979);
#46=CYLINDRICAL_SURFACE($,#303,10.9999999999998);
#47=CYLINDRICAL_SURFACE($,#310,4.);
#48=CYLINDRICAL_SURFACE($,#318,4.);
#49=CYLINDRICAL_SURFACE($,#322,4.);
#50=CYLINDRICAL_SURFACE($,#330,11.);
#51=CYLINDRICAL_SURFACE($,#336,8.45000000000001);
#52=FACE_BOUND($,#93,.T.);
#53=FACE_BOUND($,#95,.T.);
#54=FACE_BOUND($,#97,.T.);
#55=FACE_BOUND($,#99,.T.);
#56=FACE_BOUND($,#101,.T.);
#57=FACE_BOUND($,#103,.T.);
#58=FACE_BOUND($,#108,.T.);
#59=FACE_BOUND($,#112,.T.);
#60=FACE_BOUND($,#114,.T.);
#61=FACE_BOUND($,#117,.T.);
#62=FACE_BOUND($,#119,.T.);
#63=FACE_BOUND($,#123,.T.);
#64=FACE_BOUND($,#125,.T.);
#65=FACE_BOUND($,#127,.T.);
#66=FACE_BOUND($,#129,.T.);
#67=FACE_BOUND($,#130,.T.);
#68=FACE_BOUND($,#131,.T.);
#69=FACE_OUTER_BOUND($,#92,.T.);
#70=FACE_OUTER_BOUND($,#94,.T.);
#71=FACE_OUTER_BOUND($,#96,.T.);
#72=FACE_OUTER_BOUND($,#98,.T.);
#73=FACE_OUTER_BOUND($,#100,.T.);
#74=FACE_OUTER_BOUND($,#102,.T.);
#75=FACE_OUTER_BOUND($,#104,.T.);
#76=FACE_OUTER_BOUND($,#105,.T.);
#77=FACE_OUTER_BOUND($,#106,.T.);
#78=FACE_OUTER_BOUND($,#107,.T.);
#79=FACE_OUTER_BOUND($,#109,.T.);
#80=FACE_OUTER_BOUND($,#110,.T.);
#81=FACE_OUTER_BOUND($,#111,.T.);
#82=FACE_OUTER_BOUND($,#113,.T.);
#83=FACE_OUTER_BOUND($,#115,.T.);
#84=FACE_OUTER_BOUND($,#116,.T.);
#85=FACE_OUTER_BOUND($,#118,.T.);
#86=FACE_OUTER_BOUND($,#120,.T.);
#87=FACE_OUTER_BOUND($,#121,.T.);
#88=FACE_OUTER_BOUND($,#122,.T.);
#89=FACE_OUTER_BOUND($,#124,.T.);
#90=FACE_OUTER_BOUND($,#126,.T.);
#91=FACE_OUTER_BOUND($,#128,.T.);
#92=EDGE_LOOP($,(#192));
#93=EDGE_LOOP($,(#193));
#94=EDGE_LOOP($,(#194));
#95=EDGE_LOOP($,(#195));
#96=EDGE_LOOP($,(#196));
#97=EDGE_LOOP($,(#197));
#98=EDGE_LOOP($,(#198));
#99=EDGE_LOOP($,(#199));
#100=EDGE_LOOP($,(#200));
#101=EDGE_LOOP($,(#201));
#102=EDGE_LOOP($,(#202));
#103=EDGE_LOOP($,(#203));
#104=EDGE_LOOP($,(#204));
#105=EDGE_LOOP($,(#205));
#106=EDGE_LOOP($,(#206));
#107=EDGE_LOOP($,(#207));
#108=EDGE_LOOP($,(#208));
#109=EDGE_LOOP($,(#209));
#110=EDGE_LOOP($,(#210));
#111=EDGE_LOOP($,(#211));
#112=EDGE_LOOP($,(#212));
#113=EDGE_LOOP($,(#213));
#114=EDGE_LOOP($,(#214));
#115=EDGE_LOOP($,(#215));
#116=EDGE_LOOP($,(#216));
#117=EDGE_LOOP($,(#217));
#118=EDGE_LOOP($,(#218));
#119=EDGE_LOOP($,(#219));
#120=EDGE_LOOP($,(#220));
#121=EDGE_LOOP($,(#221));
#122=EDGE_LOOP($,(#222));
#123=EDGE_LOOP($,(#223));
#124=EDGE_LOOP($,(#224));
#125=EDGE_LOOP($,(#225));
#126=EDGE_LOOP($,(#226));
#127=EDGE_LOOP($,(#227));
#128=EDGE_LOOP($,(#228));
#129=EDGE_LOOP($,(#229));
#130=EDGE_LOOP($,(#230));
#131=EDGE_LOOP($,(#231));
#132=CIRCLE($,#293,8.39999999999979);
#133=CIRCLE($,#294,8.19999999999978);
#134=CIRCLE($,#296,8.39999999999979);
#135=CIRCLE($,#298,8.19999999999979);
#136=CIRCLE($,#300,7.6916786289709);
#137=CIRCLE($,#302,10.9999999999998);
#138=CIRCLE($,#304,10.9999999999998);
#139=CIRCLE($,#309,4.);
#140=CIRCLE($,#311,4.00000000000001);
#141=CIRCLE($,#315,3.5);
#142=CIRCLE($,#317,4.);
#143=CIRCLE($,#319,4.);
#144=CIRCLE($,#323,4.);
#145=CIRCLE($,#324,4.);
#146=CIRCLE($,#326,3.5);
#147=CIRCLE($,#329,11.);
#148=CIRCLE($,#331,11.);
#149=CIRCLE($,#333,7.64000000000001);
#150=CIRCLE($,#335,8.45000000000001);
#151=CIRCLE($,#337,8.45000000000001);
#152=VERTEX_POINT($,#452);
#153=VERTEX_POINT($,#454);
#154=VERTEX_POINT($,#457);
#155=VERTEX_POINT($,#460);
#156=VERTEX_POINT($,#463);
#157=VERTEX_POINT($,#466);
#158=VERTEX_POINT($,#469);
#159=VERTEX_POINT($,#475);
#160=VERTEX_POINT($,#478);
#161=VERTEX_POINT($,#483);
#162=VERTEX_POINT($,#486);
#163=VERTEX_POINT($,#489);
#164=VERTEX_POINT($,#494);
#165=VERTEX_POINT($,#496);
#166=VERTEX_POINT($,#499);
#167=VERTEX_POINT($,#503);
#168=VERTEX_POINT($,#506);
#169=VERTEX_POINT($,#509);
#170=VERTEX_POINT($,#512);
#171=VERTEX_POINT($,#515);
#172=EDGE_CURVE($,#152,#152,#132,.T.);
#173=EDGE_CURVE($,#153,#153,#133,.T.);
#174=EDGE_CURVE($,#154,#154,#134,.T.);
#175=EDGE_CURVE($,#155,#155,#135,.T.);
#176=EDGE_CURVE($,#156,#156,#136,.T.);
#177=EDGE_CURVE($,#157,#157,#137,.T.);
#178=EDGE_CURVE($,#158,#158,#138,.T.);
#179=EDGE_CURVE($,#159,#159,#139,.T.);
#180=EDGE_CURVE($,#160,#160,#140,.T.);
#181=EDGE_CURVE($,#161,#161,#141,.T.);
#182=EDGE_CURVE($,#162,#162,#142,.T.);
#183=EDGE_CURVE($,#163,#163,#143,.T.);
#184=EDGE_CURVE($,#164,#164,#144,.T.);
#185=EDGE_CURVE($,#165,#165,#145,.T.);
#186=EDGE_CURVE($,#166,#166,#146,.T.);
#187=EDGE_CURVE($,#167,#167,#147,.T.);
#188=EDGE_CURVE($,#168,#168,#148,.T.);
#189=EDGE_CURVE($,#169,#169,#149,.T.);
#190=EDGE_CURVE($,#170,#170,#150,.T.);
#191=EDGE_CURVE($,#171,#171,#151,.T.);
#192=ORIENTED_EDGE($,*,*,#172,.F.);
#193=ORIENTED_EDGE($,*,*,#173,.T.);
#194=ORIENTED_EDGE($,*,*,#174,.F.);
#195=ORIENTED_EDGE($,*,*,#172,.T.);
#196=ORIENTED_EDGE($,*,*,#175,.F.);
#197=ORIENTED_EDGE($,*,*,#174,.T.);
#198=ORIENTED_EDGE($,*,*,#176,.F.);
#199=ORIENTED_EDGE($,*,*,#175,.T.);
#200=ORIENTED_EDGE($,*,*,#177,.F.);
#201=ORIENTED_EDGE($,*,*,#176,.T.);
#202=ORIENTED_EDGE($,*,*,#178,.F.);
#203=ORIENTED_EDGE($,*,*,#177,.T.);
#204=ORIENTED_EDGE($,*,*,#178,.T.);
#205=ORIENTED_EDGE($,*,*,#173,.F.);
#206=ORIENTED_EDGE($,*,*,#179,.F.);
#207=ORIENTED_EDGE($,*,*,#180,.F.);
#208=ORIENTED_EDGE($,*,*,#179,.T.);
#209=ORIENTED_EDGE($,*,*,#180,.T.);
#210=ORIENTED_EDGE($,*,*,#181,.F.);
#211=ORIENTED_EDGE($,*,*,#182,.F.);
#212=ORIENTED_EDGE($,*,*,#181,.T.);
#213=ORIENTED_EDGE($,*,*,#183,.F.);
#214=ORIENTED_EDGE($,*,*,#182,.T.);
#215=ORIENTED_EDGE($,*,*,#183,.T.);
#216=ORIENTED_EDGE($,*,*,#184,.F.);
#217=ORIENTED_EDGE($,*,*,#185,.T.);
#218=ORIENTED_EDGE($,*,*,#186,.F.);
#219=ORIENTED_EDGE($,*,*,#184,.T.);
#220=ORIENTED_EDGE($,*,*,#186,.T.);
#221=ORIENTED_EDGE($,*,*,#187,.F.);
#222=ORIENTED_EDGE($,*,*,#188,.F.);
#223=ORIENTED_EDGE($,*,*,#187,.T.);
#224=ORIENTED_EDGE($,*,*,#189,.F.);
#225=ORIENTED_EDGE($,*,*,#188,.T.);
#226=ORIENTED_EDGE($,*,*,#190,.F.);
#227=ORIENTED_EDGE($,*,*,#189,.T.);
#228=ORIENTED_EDGE($,*,*,#191,.F.);
#229=ORIENTED_EDGE($,*,*,#190,.T.);
#230=ORIENTED_EDGE($,*,*,#185,.F.);
#231=ORIENTED_EDGE($,*,*,#191,.T.);
#232=CONICAL_SURFACE($,#292,8.29999999999979,45.000000000004);
#233=CONICAL_SURFACE($,#297,8.29999999999979,44.9999999999999);
#234=CONICAL_SURFACE($,#299,7.94583931448535,83.9999999999988);
#235=CONICAL_SURFACE($,#316,3.75,45.0000000000001);
#236=CONICAL_SURFACE($,#325,3.75,44.9999999999998);
#237=CONICAL_SURFACE($,#334,8.04500000000001,75.);
#238=STYLED_ITEM($,(#578),#259);
#239=STYLED_ITEM($,(#578),#260);
#240=STYLED_ITEM($,(#578),#261);
#241=STYLED_ITEM($,(#578),#262);
#242=STYLED_ITEM($,(#579),#263);
#243=STYLED_ITEM($,(#579),#264);
#244=STYLED_ITEM($,(#579),#265);
#245=STYLED_ITEM($,(#578),#266);
#246=STYLED_ITEM($,(#577),#287);
#247=STYLED_ITEM($,(#579),#288);
#248=STYLED_ITEM($,(#579),#289);
#249=STYLED_ITEM($,(#578),#274);
#250=STYLED_ITEM($,(#578),#275);
#251=STYLED_ITEM($,(#578),#276);
#252=STYLED_ITEM($,(#579),#277);
#253=STYLED_ITEM($,(#579),#278);
#254=STYLED_ITEM($,(#579),#279);
#255=STYLED_ITEM($,(#578),#280);
#256=STYLED_ITEM($,(#578),#281);
#257=STYLED_ITEM($,(#578),#282);
#258=STYLED_ITEM($,(#580),#290);
#259=ADVANCED_FACE($,(#69,#52),#232,.T.);
#260=ADVANCED_FACE($,(#70,#53),#45,.T.);
#261=ADVANCED_FACE($,(#71,#54),#233,.T.);
#262=ADVANCED_FACE($,(#72,#55),#234,.T.);
#263=ADVANCED_FACE($,(#73,#56),#43,.T.);
#264=ADVANCED_FACE($,(#74,#57),#46,.T.);
#265=ADVANCED_FACE($,(#75),#34,.T.);
#266=ADVANCED_FACE($,(#76),#35,.T.);
#267=ADVANCED_FACE($,(#77),#36,.T.);
#268=ADVANCED_FACE($,(#78,#58),#47,.T.);
#269=ADVANCED_FACE($,(#79),#37,.T.);
#270=ADVANCED_FACE($,(#80),#38,.T.);
#271=ADVANCED_FACE($,(#81,#59),#235,.T.);
#272=ADVANCED_FACE($,(#82,#60),#48,.T.);
#273=ADVANCED_FACE($,(#83),#39,.T.);
#274=ADVANCED_FACE($,(#84,#61),#49,.T.);
#275=ADVANCED_FACE($,(#85,#62),#236,.T.);
#276=ADVANCED_FACE($,(#86),#40,.T.);
#277=ADVANCED_FACE($,(#87),#41,.T.);
#278=ADVANCED_FACE($,(#88,#63),#50,.T.);
#279=ADVANCED_FACE($,(#89,#64),#44,.T.);
#280=ADVANCED_FACE($,(#90,#65),#237,.T.);
#281=ADVANCED_FACE($,(#91,#66),#51,.T.);
#282=ADVANCED_FACE($,(#67,#68),#42,.T.);
#283=CLOSED_SHELL($,(#259,#260,#261,#262,#263,#264,#265,#266));
#284=CLOSED_SHELL($,(#267,#268,#269));
#285=CLOSED_SHELL($,(#270,#271,#272,#273));
#286=CLOSED_SHELL($,(#274,#275,#276,#277,#278,#279,#280,#281,#282));
#287=MANIFOLD_SOLID_BREP('Volumenk\X\F6rper1',#283);
#288=MANIFOLD_SOLID_BREP('Volumenk\X\F6rper2',#284);
#289=MANIFOLD_SOLID_BREP('Volumenk\X\F6rper2',#285);
#290=MANIFOLD_SOLID_BREP('Volumenk\X\F6rper1',#286);
#291=AXIS2_PLACEMENT_3D('placement',#450,#344,#345);
#292=AXIS2_PLACEMENT_3D($,#451,#346,#347);
#293=AXIS2_PLACEMENT_3D($,#453,#348,#349);
#294=AXIS2_PLACEMENT_3D($,#455,#350,#351);
#295=AXIS2_PLACEMENT_3D($,#456,#352,#353);
#296=AXIS2_PLACEMENT_3D($,#458,#354,#355);
#297=AXIS2_PLACEMENT_3D($,#459,#356,#357);
#298=AXIS2_PLACEMENT_3D($,#461,#358,#359);
#299=AXIS2_PLACEMENT_3D($,#462,#360,#361);
#300=AXIS2_PLACEMENT_3D($,#464,#362,#363);
#301=AXIS2_PLACEMENT_3D($,#465,#364,#365);
#302=AXIS2_PLACEMENT_3D($,#467,#366,#367);
#303=AXIS2_PLACEMENT_3D($,#468,#368,#369);
#304=AXIS2_PLACEMENT_3D($,#470,#370,#371);
#305=AXIS2_PLACEMENT_3D($,#471,#372,#373);
#306=AXIS2_PLACEMENT_3D($,#472,#374,#375);
#307=AXIS2_PLACEMENT_3D('placement',#473,#376,#377);
#308=AXIS2_PLACEMENT_3D($,#474,#378,#379);
#309=AXIS2_PLACEMENT_3D($,#476,#380,#381);
#310=AXIS2_PLACEMENT_3D($,#477,#382,#383);
#311=AXIS2_PLACEMENT_3D($,#479,#384,#385);
#312=AXIS2_PLACEMENT_3D($,#480,#386,#387);
#313=AXIS2_PLACEMENT_3D('placement',#481,#388,#389);
#314=AXIS2_PLACEMENT_3D($,#482,#390,#391);
#315=AXIS2_PLACEMENT_3D($,#484,#392,#393);
#316=AXIS2_PLACEMENT_3D($,#485,#394,#395);
#317=AXIS2_PLACEMENT_3D($,#487,#396,#397);
#318=AXIS2_PLACEMENT_3D($,#488,#398,#399);
#319=AXIS2_PLACEMENT_3D($,#490,#400,#401);
#320=AXIS2_PLACEMENT_3D($,#491,#402,#403);
#321=AXIS2_PLACEMENT_3D('placement',#492,#404,#405);
#322=AXIS2_PLACEMENT_3D($,#493,#406,#407);
#323=AXIS2_PLACEMENT_3D($,#495,#408,#409);
#324=AXIS2_PLACEMENT_3D($,#497,#410,#411);
#325=AXIS2_PLACEMENT_3D($,#498,#412,#413);
#326=AXIS2_PLACEMENT_3D($,#500,#414,#415);
#327=AXIS2_PLACEMENT_3D($,#501,#416,#417);
#328=AXIS2_PLACEMENT_3D($,#502,#418,#419);
#329=AXIS2_PLACEMENT_3D($,#504,#420,#421);
#330=AXIS2_PLACEMENT_3D($,#505,#422,#423);
#331=AXIS2_PLACEMENT_3D($,#507,#424,#425);
#332=AXIS2_PLACEMENT_3D($,#508,#426,#427);
#333=AXIS2_PLACEMENT_3D($,#510,#428,#429);
#334=AXIS2_PLACEMENT_3D($,#511,#430,#431);
#335=AXIS2_PLACEMENT_3D($,#513,#432,#433);
#336=AXIS2_PLACEMENT_3D($,#514,#434,#435);
#337=AXIS2_PLACEMENT_3D($,#516,#436,#437);
#338=AXIS2_PLACEMENT_3D($,#517,#438,#439);
#339=AXIS2_PLACEMENT_3D('placement',#518,#440,#441);
#340=AXIS2_PLACEMENT_3D($,#519,#442,#443);
#341=AXIS2_PLACEMENT_3D($,#520,#444,#445);
#342=AXIS2_PLACEMENT_3D($,#521,#446,#447);
#343=AXIS2_PLACEMENT_3D($,#522,#448,#449);
#344=DIRECTION('axis',(0.,0.,1.));
#345=DIRECTION('refdir',(1.,0.,0.));
#346=DIRECTION('center_axis',(1.,0.,0.));
#347=DIRECTION('ref_axis',(1.04179325582754E-016,1.,0.));
#348=DIRECTION('center_axis',(1.,0.,0.));
#349=DIRECTION('ref_axis',(1.04179325582754E-016,1.,0.));
#350=DIRECTION('center_axis',(1.,0.,0.));
#351=DIRECTION('ref_axis',(1.04179325582754E-016,1.,0.));
#352=DIRECTION('center_axis',(1.,0.,0.));
#353=DIRECTION('ref_axis',(1.04179325582754E-016,1.,0.));
#354=DIRECTION('center_axis',(1.,0.,0.));
#355=DIRECTION('ref_axis',(1.04179325582754E-016,1.,0.));
#356=DIRECTION('center_axis',(-1.,0.,0.));
#357=DIRECTION('ref_axis',(1.04179325582754E-016,1.,0.));
#358=DIRECTION('center_axis',(1.,0.,0.));
#359=DIRECTION('ref_axis',(1.04179325582754E-016,1.,0.));
#360=DIRECTION('center_axis',(-1.,0.,0.));
#361=DIRECTION('ref_axis',(1.04179325582754E-016,1.,0.));
#362=DIRECTION('center_axis',(1.,0.,0.));
#363=DIRECTION('ref_axis',(1.04179325582754E-016,1.,0.));
#364=DIRECTION('center_axis',(1.,0.,0.));
#365=DIRECTION('ref_axis',(0.,0.,-1.));
#366=DIRECTION('center_axis',(1.,0.,0.));
#367=DIRECTION('ref_axis',(1.04179325582754E-016,1.,0.));
#368=DIRECTION('center_axis',(1.,0.,0.));
#369=DIRECTION('ref_axis',(1.04179325582754E-016,1.,0.));
#370=DIRECTION('center_axis',(1.,0.,0.));
#371=DIRECTION('ref_axis',(1.04179325582754E-016,1.,0.));
#372=DIRECTION('center_axis',(1.,0.,0.));
#373=DIRECTION('ref_axis',(0.,0.,-1.));
#374=DIRECTION('center_axis',(-1.,0.,0.));
#375=DIRECTION('ref_axis',(0.,0.,1.));
#376=DIRECTION('axis',(0.,0.,1.));
#377=DIRECTION('refdir',(1.,0.,0.));
#378=DIRECTION('center_axis',(-1.,0.,0.));
#379=DIRECTION('ref_axis',(0.,0.,1.));
#380=DIRECTION('center_axis',(1.,0.,0.));
#381=DIRECTION('ref_axis',(0.,1.,0.));
#382=DIRECTION('center_axis',(1.,0.,0.));
#383=DIRECTION('ref_axis',(0.,1.,0.));
#384=DIRECTION('center_axis',(1.,0.,0.));
#385=DIRECTION('ref_axis',(0.,1.,0.));
#386=DIRECTION('center_axis',(1.,0.,0.));
#387=DIRECTION('ref_axis',(0.,0.,-1.));
#388=DIRECTION('axis',(0.,0.,1.));
#389=DIRECTION('refdir',(1.,0.,0.));
#390=DIRECTION('center_axis',(-1.,0.,0.));
#391=DIRECTION('ref_axis',(0.,0.,1.));
#392=DIRECTION('center_axis',(1.,0.,0.));
#393=DIRECTION('ref_axis',(0.,1.,0.));
#394=DIRECTION('center_axis',(1.,0.,0.));
#395=DIRECTION('ref_axis',(0.,1.,0.));
#396=DIRECTION('center_axis',(1.,0.,0.));
#397=DIRECTION('ref_axis',(0.,1.,0.));
#398=DIRECTION('center_axis',(1.,0.,0.));
#399=DIRECTION('ref_axis',(0.,1.,0.));
#400=DIRECTION('center_axis',(1.,0.,0.));
#401=DIRECTION('ref_axis',(0.,1.,0.));
#402=DIRECTION('center_axis',(1.,0.,0.));
#403=DIRECTION('ref_axis',(0.,0.,-1.));
#404=DIRECTION('axis',(0.,0.,1.));
#405=DIRECTION('refdir',(1.,0.,0.));
#406=DIRECTION('center_axis',(1.,0.,0.));
#407=DIRECTION('ref_axis',(0.,1.,0.));
#408=DIRECTION('center_axis',(1.,0.,0.));
#409=DIRECTION('ref_axis',(0.,1.,0.));
#410=DIRECTION('center_axis',(1.,0.,0.));
#411=DIRECTION('ref_axis',(0.,1.,0.));
#412=DIRECTION('center_axis',(-1.,0.,0.));
#413=DIRECTION('ref_axis',(0.,1.,0.));
#414=DIRECTION('center_axis',(1.,0.,0.));
#415=DIRECTION('ref_axis',(0.,1.,0.));
#416=DIRECTION('center_axis',(1.,0.,0.));
#417=DIRECTION('ref_axis',(0.,0.,-1.));
#418=DIRECTION('center_axis',(-1.,0.,0.));
#419=DIRECTION('ref_axis',(0.,0.,1.));
#420=DIRECTION('center_axis',(1.,0.,0.));
#421=DIRECTION('ref_axis',(0.,1.,0.));
#422=DIRECTION('center_axis',(1.,0.,0.));
#423=DIRECTION('ref_axis',(0.,1.,0.));
#424=DIRECTION('center_axis',(1.,0.,0.));
#425=DIRECTION('ref_axis',(0.,1.,0.));
#426=DIRECTION('center_axis',(1.,0.,0.));
#427=DIRECTION('ref_axis',(0.,0.,-1.));
#428=DIRECTION('center_axis',(1.,0.,0.));
#429=DIRECTION('ref_axis',(0.,1.,0.));
#430=DIRECTION('center_axis',(1.,0.,0.));
#431=DIRECTION('ref_axis',(0.,1.,0.));
#432=DIRECTION('center_axis',(1.,0.,0.));
#433=DIRECTION('ref_axis',(0.,1.,0.));
#434=DIRECTION('center_axis',(1.,0.,0.));
#435=DIRECTION('ref_axis',(0.,1.,0.));
#436=DIRECTION('center_axis',(1.,0.,0.));
#437=DIRECTION('ref_axis',(0.,1.,0.));
#438=DIRECTION('center_axis',(1.,0.,0.));
#439=DIRECTION('ref_axis',(0.,0.,-1.));
#440=DIRECTION('axis',(0.,0.,1.));
#441=DIRECTION('refdir',(1.,0.,0.));
#442=DIRECTION($,(0.,0.,1.));
#443=DIRECTION($,(1.,0.,0.));
#444=DIRECTION($,(0.,0.,1.));
#445=DIRECTION($,(1.,0.,0.));
#446=DIRECTION($,(-2.73288618689092E-017,-1.16573417585642E-015,1.));
#447=DIRECTION($,(1.,5.06629261225303E-017,2.73288618689093E-017));
#448=DIRECTION($,(-3.02684809741543E-017,-1.11022302462515E-016,1.));
#449=DIRECTION($,(1.,-5.55111512312585E-017,3.02684809741543E-017));
#450=CARTESIAN_POINT('',(0.,0.,0.));
#451=CARTESIAN_POINT('Origin',(0.100000000000009,0.,0.));
#452=CARTESIAN_POINT('',(0.200000000000003,8.39999999999979,0.));
#453=CARTESIAN_POINT('Origin',(0.200000000000003,0.,0.));
#454=CARTESIAN_POINT('',(1.4210854715202E-014,8.19999999999978,0.));
#455=CARTESIAN_POINT('Origin',(1.4210854715202E-014,0.,0.));
#456=CARTESIAN_POINT('Origin',(0.441515919175096,0.,0.));
#457=CARTESIAN_POINT('',(0.683031838350189,8.39999999999979,0.));
#458=CARTESIAN_POINT('Origin',(0.683031838350189,0.,0.));
#459=CARTESIAN_POINT('Origin',(0.783031838350189,0.,0.));
#460=CARTESIAN_POINT('',(0.88303183835019,8.19999999999979,0.));
#461=CARTESIAN_POINT('Origin',(0.88303183835019,0.,0.));
#462=CARTESIAN_POINT('Origin',(0.909745202835791,0.,0.));
#463=CARTESIAN_POINT('',(0.936458567321393,7.6916786289709,0.));
#464=CARTESIAN_POINT('Origin',(0.936458567321393,0.,0.));
#465=CARTESIAN_POINT('Origin',(5.14026512393094,0.,0.));
#466=CARTESIAN_POINT('',(5.14026512393094,10.9999999999998,0.));
#467=CARTESIAN_POINT('Origin',(5.14026512393094,0.,0.));
#468=CARTESIAN_POINT('Origin',(49.5701325619655,0.,0.));
#469=CARTESIAN_POINT('',(94.,10.9999999999998,0.));
#470=CARTESIAN_POINT('Origin',(94.,0.,0.));
#471=CARTESIAN_POINT('Origin',(94.,5.4999999999999,0.));
#472=CARTESIAN_POINT('Origin',(0.,4.09999999999977,0.));
#473=CARTESIAN_POINT('',(0.,0.,0.));
#474=CARTESIAN_POINT('Origin',(-6.12323399573677E-016,2.,0.));
#475=CARTESIAN_POINT('',(-1.22464679914735E-015,4.,0.));
#476=CARTESIAN_POINT('Origin',(0.,0.,0.));
#477=CARTESIAN_POINT('Origin',(25.,0.,0.));
#478=CARTESIAN_POINT('',(50.,4.00000000000001,0.));
#479=CARTESIAN_POINT('Origin',(50.,0.,0.));
#480=CARTESIAN_POINT('Origin',(50.,2.,0.));
#481=CARTESIAN_POINT('',(0.,0.,0.));
#482=CARTESIAN_POINT('Origin',(-9.,1.75,0.));
#483=CARTESIAN_POINT('',(-9.,3.5,0.));
#484=CARTESIAN_POINT('Origin',(-9.,0.,0.));
#485=CARTESIAN_POINT('Origin',(-8.75,0.,0.));
#486=CARTESIAN_POINT('',(-8.5,4.,0.));
#487=CARTESIAN_POINT('Origin',(-8.5,0.,0.));
#488=CARTESIAN_POINT('Origin',(-4.25,0.,0.));
#489=CARTESIAN_POINT('',(-1.22464679914735E-015,4.,0.));
#490=CARTESIAN_POINT('Origin',(-1.11022302462516E-015,0.,0.));
#491=CARTESIAN_POINT('Origin',(-6.12323399573677E-016,2.,0.));
#492=CARTESIAN_POINT('',(0.,0.,0.));
#493=CARTESIAN_POINT('Origin',(9.75,0.,0.));
#494=CARTESIAN_POINT('',(13.5,4.,0.));
#495=CARTESIAN_POINT('Origin',(13.5,0.,0.));
#496=CARTESIAN_POINT('',(6.,4.,0.));
#497=CARTESIAN_POINT('Origin',(6.,0.,0.));
#498=CARTESIAN_POINT('Origin',(13.75,0.,0.));
#499=CARTESIAN_POINT('',(14.,3.5,0.));
#500=CARTESIAN_POINT('Origin',(14.,0.,0.));
#501=CARTESIAN_POINT('Origin',(14.,1.75,0.));
#502=CARTESIAN_POINT('Origin',(0.,5.5,0.));
#503=CARTESIAN_POINT('',(0.,11.,0.));
#504=CARTESIAN_POINT('Origin',(0.,0.,0.));
#505=CARTESIAN_POINT('Origin',(0.375,0.,0.));
#506=CARTESIAN_POINT('',(0.749999999999999,11.,0.));
#507=CARTESIAN_POINT('Origin',(0.75,0.,0.));
#508=CARTESIAN_POINT('Origin',(0.663954147624557,0.,0.));
#509=CARTESIAN_POINT('',(4.9,7.64000000000001,0.));
#510=CARTESIAN_POINT('Origin',(4.9,0.,0.));
#511=CARTESIAN_POINT('Origin',(5.00851942293461,0.,0.));
#512=CARTESIAN_POINT('',(5.11703884586921,8.45000000000001,0.));
#513=CARTESIAN_POINT('Origin',(5.11703884586921,0.,0.));
#514=CARTESIAN_POINT('Origin',(5.55851942293461,0.,0.));
#515=CARTESIAN_POINT('',(6.,8.45000000000001,0.));
#516=CARTESIAN_POINT('Origin',(6.,0.,0.));
#517=CARTESIAN_POINT('Origin',(6.,6.225,0.));
#518=CARTESIAN_POINT('',(0.,0.,0.));
#519=CARTESIAN_POINT($,(0.,0.,0.));
#520=CARTESIAN_POINT($,(-50.,-1.56268988374131E-014,0.));
#521=CARTESIAN_POINT($,(-50.0000000000001,-1.56268988374131E-014,-9.86076131526265E-031));
#522=CARTESIAN_POINT($,(94.,-1.52144072590886E-014,-1.04770588974666E-030));
#523=UNCERTAINTY_MEASURE_WITH_UNIT(LENGTH_MEASURE(0.01),#533,
'DISTANCE_ACCURACY_VALUE',
'Maximum model space distance between geometric entities at asserted c
onnectivities');
#524=UNCERTAINTY_MEASURE_WITH_UNIT(LENGTH_MEASURE(0.01),#533,
'DISTANCE_ACCURACY_VALUE',
'Maximum model space distance between geometric entities at asserted c
onnectivities');
#525=UNCERTAINTY_MEASURE_WITH_UNIT(LENGTH_MEASURE(0.01),#533,
'DISTANCE_ACCURACY_VALUE',
'Maximum model space distance between geometric entities at asserted c
onnectivities');
#526=UNCERTAINTY_MEASURE_WITH_UNIT(LENGTH_MEASURE(0.01),#533,
'DISTANCE_ACCURACY_VALUE',
'Maximum model space distance between geometric entities at asserted c
onnectivities');
#527=UNCERTAINTY_MEASURE_WITH_UNIT(LENGTH_MEASURE(0.01),#533,
'DISTANCE_ACCURACY_VALUE',
'Maximum model space distance between geometric entities at asserted c
onnectivities');
#528=(
GEOMETRIC_REPRESENTATION_CONTEXT(3)
GLOBAL_UNCERTAINTY_ASSIGNED_CONTEXT((#523))
GLOBAL_UNIT_ASSIGNED_CONTEXT((#533,#536,#534))
REPRESENTATION_CONTEXT('','3D')
);
#529=(
GEOMETRIC_REPRESENTATION_CONTEXT(3)
GLOBAL_UNCERTAINTY_ASSIGNED_CONTEXT((#524))
GLOBAL_UNIT_ASSIGNED_CONTEXT((#533,#536,#534))
REPRESENTATION_CONTEXT('','3D')
);
#530=(
GEOMETRIC_REPRESENTATION_CONTEXT(3)
GLOBAL_UNCERTAINTY_ASSIGNED_CONTEXT((#525))
GLOBAL_UNIT_ASSIGNED_CONTEXT((#533,#536,#534))
REPRESENTATION_CONTEXT('','3D')
);
#531=(
GEOMETRIC_REPRESENTATION_CONTEXT(3)
GLOBAL_UNCERTAINTY_ASSIGNED_CONTEXT((#526))
GLOBAL_UNIT_ASSIGNED_CONTEXT((#533,#536,#534))
REPRESENTATION_CONTEXT('','3D')
);
#532=(
GEOMETRIC_REPRESENTATION_CONTEXT(3)
GLOBAL_UNCERTAINTY_ASSIGNED_CONTEXT((#527))
GLOBAL_UNIT_ASSIGNED_CONTEXT((#533,#536,#534))
REPRESENTATION_CONTEXT('','3D')
);
#533=(
LENGTH_UNIT()
NAMED_UNIT(*)
SI_UNIT(.MILLI.,.METRE.)
);
#534=(
NAMED_UNIT(*)
SI_UNIT($,.STERADIAN.)
SOLID_ANGLE_UNIT()
);
#535=DIMENSIONAL_EXPONENTS(0.,0.,0.,0.,0.,0.,0.);
#536=(
CONVERSION_BASED_UNIT('degree',#538)
NAMED_UNIT(#535)
PLANE_ANGLE_UNIT()
);
#537=(
NAMED_UNIT(*)
PLANE_ANGLE_UNIT()
SI_UNIT($,.RADIAN.)
);
#538=PLANE_ANGLE_MEASURE_WITH_UNIT(PLANE_ANGLE_MEASURE(0.01745329252),#537);
#539=SHAPE_DEFINITION_REPRESENTATION(#544,#553);
#540=SHAPE_DEFINITION_REPRESENTATION(#545,#554);
#541=SHAPE_DEFINITION_REPRESENTATION(#546,#555);
#542=SHAPE_DEFINITION_REPRESENTATION(#547,#556);
#543=SHAPE_DEFINITION_REPRESENTATION(#548,#557);
#544=PRODUCT_DEFINITION_SHAPE('',$,#559);
#545=PRODUCT_DEFINITION_SHAPE('',$,#560);
#546=PRODUCT_DEFINITION_SHAPE('',$,#561);
#547=PRODUCT_DEFINITION_SHAPE('',$,#562);
#548=PRODUCT_DEFINITION_SHAPE('',$,#563);
#549=PRODUCT_DEFINITION_SHAPE($,$,#22);
#550=PRODUCT_DEFINITION_SHAPE($,$,#23);
#551=PRODUCT_DEFINITION_SHAPE($,$,#24);
#552=PRODUCT_DEFINITION_SHAPE($,$,#25);
#553=SHAPE_REPRESENTATION('',(#291),#528);
#554=SHAPE_REPRESENTATION('',(#307),#529);
#555=SHAPE_REPRESENTATION('',(#313),#530);
#556=SHAPE_REPRESENTATION('',(#321),#531);
#557=SHAPE_REPRESENTATION('',(#339,#340,#341,#342,#343),#532);
#558=PRODUCT_DEFINITION_CONTEXT('3D Mechanical Parts',#570,'design');
#559=PRODUCT_DEFINITION('Zylinder_22','Zylinder_22',#564,#558);
#560=PRODUCT_DEFINITION('Kolbenstange_08','Kolbenstange_08',#565,#558);
#561=PRODUCT_DEFINITION('Gewindeanschlu\X\DF_B0','Gewindeanschlu\X\DF_
B0',#566,#558);
#562=PRODUCT_DEFINITION('Gewindeanschlu\X\DF_M8x8_22',
'Gewindeanschlu\X\DF_M8x8_22',#567,#558);
#563=PRODUCT_DEFINITION('B0N0XB1-050-150--004-000N',
'B0N0XB1-050-150--004-000N',#568,#558);
#564=PRODUCT_DEFINITION_FORMATION('',$,#572);
#565=PRODUCT_DEFINITION_FORMATION('',$,#573);
#566=PRODUCT_DEFINITION_FORMATION('',$,#574);
#567=PRODUCT_DEFINITION_FORMATION('',$,#575);
#568=PRODUCT_DEFINITION_FORMATION('',$,#576);
#569=APPLICATION_PROTOCOL_DEFINITION('international standard',
'automotive_design',2009,#570);
#570=APPLICATION_CONTEXT(
'Core Data for Automotive Mechanical Design Process');
#571=PRODUCT_CONTEXT('3D Mechanical Parts',#570,'mechanical');
#572=PRODUCT('Zylinder_22','Zylinder_22',$,(#571));
#573=PRODUCT('Kolbenstange_08','Kolbenstange_08',$,(#571));
#574=PRODUCT('Gewindeanschlu\X\DF_B0','Gewindeanschlu\X\DF_B0',$,(#571));
#575=PRODUCT('Gewindeanschlu\X\DF_M8x8_22','Gewindeanschlu\X\DF_M8x8_2
2',$,(#571));
#576=PRODUCT('B0N0XB1-050-150--004-000N','B0N0XB1-050-150--004-000N',$,
(#571));
#577=PRESENTATION_STYLE_ASSIGNMENT((#581));
#578=PRESENTATION_STYLE_ASSIGNMENT((#582));
#579=PRESENTATION_STYLE_ASSIGNMENT((#583));
#580=PRESENTATION_STYLE_ASSIGNMENT((#584));
#581=SURFACE_STYLE_USAGE(.BOTH.,#585);
#582=SURFACE_STYLE_USAGE(.BOTH.,#586);
#583=SURFACE_STYLE_USAGE(.BOTH.,#587);
#584=SURFACE_STYLE_USAGE(.BOTH.,#588);
#585=SURFACE_SIDE_STYLE($,(#589));
#586=SURFACE_SIDE_STYLE($,(#590));
#587=SURFACE_SIDE_STYLE($,(#591));
#588=SURFACE_SIDE_STYLE($,(#592));
#589=SURFACE_STYLE_FILL_AREA(#593);
#590=SURFACE_STYLE_FILL_AREA(#594);
#591=SURFACE_STYLE_FILL_AREA(#595);
#592=SURFACE_STYLE_FILL_AREA(#596);
#593=FILL_AREA_STYLE($,(#597));
#594=FILL_AREA_STYLE($,(#598));
#595=FILL_AREA_STYLE($,(#599));
#596=FILL_AREA_STYLE($,(#600));
#597=FILL_AREA_STYLE_COLOUR($,#601);
#598=FILL_AREA_STYLE_COLOUR($,#602);
#599=FILL_AREA_STYLE_COLOUR($,#603);
#600=FILL_AREA_STYLE_COLOUR($,#604);
#601=COLOUR_RGB('',0.752941176470588,0.752941176470588,0.752941176470588);
#602=COLOUR_RGB('',0.949019607843137,0.925490196078431,0.933333333333333);
#603=COLOUR_RGB('',0.305882352941176,0.305882352941176,0.305882352941176);
#604=COLOUR_RGB('',0.956862745098039,0.956862745098039,0.956862745098039);
ENDSEC;
END-ISO-10303-21;
