ISO-10303-21;
HEADER;
/* Generated by software containing ST-Developer
 * from STEP Tools, Inc. (www.steptools.com) 
 */

FILE_DESCRIPTION(
/* description */ (''),
/* implementation_level */ '2;1');

FILE_NAME(
/* name */ 
'X:\\3D-Zeichnungen\\Zusammenbau-Zeichungen\\Kundenzeichnungen\\Daempf
er\\H0N0XA3-300-660-004-000N\\Step\\H0N0XA3-300-660--004-000N.stp',
/* time_stamp */ '2014-11-28T10:50:06+01:00',
/* author */ ('cadneu2'),
/* organization */ (''),
/* preprocessor_version */ 'ST-DEVELOPER v15.2',
/* originating_system */ 'Autodesk Inventor 2014',
/* authorisation */ '');

FILE_SCHEMA (('AUTOMOTIVE_DESIGN { 1 0 10303 214 3 1 1 }'));
ENDSEC;

DATA;
#10=ITEM_DEFINED_TRANSFORMATION($,$,#287,#336);
#11=ITEM_DEFINED_TRANSFORMATION($,$,#303,#337);
#12=ITEM_DEFINED_TRANSFORMATION($,$,#309,#338);
#13=ITEM_DEFINED_TRANSFORMATION($,$,#317,#339);
#14=(
REPRESENTATION_RELATIONSHIP($,$,#549,#553)
REPRESENTATION_RELATIONSHIP_WITH_TRANSFORMATION(#10)
SHAPE_REPRESENTATION_RELATIONSHIP()
);
#15=(
REPRESENTATION_RELATIONSHIP($,$,#550,#553)
REPRESENTATION_RELATIONSHIP_WITH_TRANSFORMATION(#11)
SHAPE_REPRESENTATION_RELATIONSHIP()
);
#16=(
REPRESENTATION_RELATIONSHIP($,$,#551,#553)
REPRESENTATION_RELATIONSHIP_WITH_TRANSFORMATION(#12)
SHAPE_REPRESENTATION_RELATIONSHIP()
);
#17=(
REPRESENTATION_RELATIONSHIP($,$,#552,#553)
REPRESENTATION_RELATIONSHIP_WITH_TRANSFORMATION(#13)
SHAPE_REPRESENTATION_RELATIONSHIP()
);
#18=CONTEXT_DEPENDENT_SHAPE_REPRESENTATION(#14,#545);
#19=CONTEXT_DEPENDENT_SHAPE_REPRESENTATION(#15,#546);
#20=CONTEXT_DEPENDENT_SHAPE_REPRESENTATION(#16,#547);
#21=CONTEXT_DEPENDENT_SHAPE_REPRESENTATION(#17,#548);
#22=NEXT_ASSEMBLY_USAGE_OCCURRENCE('Zylinder_28-:1',$,$,#559,#555,$);
#23=NEXT_ASSEMBLY_USAGE_OCCURRENCE('Kolbenstange_10-300:1',$,$,#559,#556,
$);
#24=NEXT_ASSEMBLY_USAGE_OCCURRENCE('Gewindeanschlu\X\DF_B0:1',$,$,#559,
#557,$);
#25=NEXT_ASSEMBLY_USAGE_OCCURRENCE('Gewindeanschlu\X\DF_N0_28:1',$,$,#559,
#558,$);
#26=SHAPE_REPRESENTATION_RELATIONSHIP('SRR','None',#549,#30);
#27=SHAPE_REPRESENTATION_RELATIONSHIP('SRR','None',#550,#31);
#28=SHAPE_REPRESENTATION_RELATIONSHIP('SRR','None',#551,#32);
#29=SHAPE_REPRESENTATION_RELATIONSHIP('SRR','None',#552,#33);
#30=ADVANCED_BREP_SHAPE_REPRESENTATION($,(#283),#524);
#31=ADVANCED_BREP_SHAPE_REPRESENTATION($,(#284),#525);
#32=ADVANCED_BREP_SHAPE_REPRESENTATION($,(#285),#526);
#33=ADVANCED_BREP_SHAPE_REPRESENTATION($,(#286),#527);
#34=TOROIDAL_SURFACE($,#298,7.91949399131731,6.08050600868267);
#35=TOROIDAL_SURFACE($,#328,7.89999999999992,6.10000000000008);
#36=CYLINDRICAL_SURFACE($,#292,9.89999999999999);
#37=CYLINDRICAL_SURFACE($,#300,14.);
#38=CYLINDRICAL_SURFACE($,#306,5.00000000000003);
#39=CYLINDRICAL_SURFACE($,#314,4.);
#40=CYLINDRICAL_SURFACE($,#318,4.);
#41=CYLINDRICAL_SURFACE($,#326,14.);
#42=CYLINDRICAL_SURFACE($,#332,9.95);
#43=FACE_BOUND($,#91,.T.);
#44=FACE_BOUND($,#93,.T.);
#45=FACE_BOUND($,#95,.T.);
#46=FACE_BOUND($,#97,.T.);
#47=FACE_BOUND($,#99,.T.);
#48=FACE_BOUND($,#101,.T.);
#49=FACE_BOUND($,#105,.T.);
#50=FACE_BOUND($,#109,.T.);
#51=FACE_BOUND($,#111,.T.);
#52=FACE_BOUND($,#114,.T.);
#53=FACE_BOUND($,#116,.T.);
#54=FACE_BOUND($,#120,.T.);
#55=FACE_BOUND($,#122,.T.);
#56=FACE_BOUND($,#124,.T.);
#57=FACE_BOUND($,#126,.T.);
#58=FACE_BOUND($,#127,.T.);
#59=FACE_BOUND($,#128,.T.);
#60=CONICAL_SURFACE($,#290,9.79999999999998,44.9999999999989);
#61=CONICAL_SURFACE($,#294,9.80340741737108,37.5000000000002);
#62=CONICAL_SURFACE($,#296,9.22696565310762,74.9999999999997);
#63=CONICAL_SURFACE($,#312,3.75,45.0000000000001);
#64=CONICAL_SURFACE($,#321,3.74999999999999,45.0000000000013);
#65=CONICAL_SURFACE($,#330,9.35,75.0000000000001);
#66=FACE_OUTER_BOUND($,#89,.T.);
#67=FACE_OUTER_BOUND($,#90,.T.);
#68=FACE_OUTER_BOUND($,#92,.T.);
#69=FACE_OUTER_BOUND($,#94,.T.);
#70=FACE_OUTER_BOUND($,#96,.T.);
#71=FACE_OUTER_BOUND($,#98,.T.);
#72=FACE_OUTER_BOUND($,#100,.T.);
#73=FACE_OUTER_BOUND($,#102,.T.);
#74=FACE_OUTER_BOUND($,#103,.T.);
#75=FACE_OUTER_BOUND($,#104,.T.);
#76=FACE_OUTER_BOUND($,#106,.T.);
#77=FACE_OUTER_BOUND($,#107,.T.);
#78=FACE_OUTER_BOUND($,#108,.T.);
#79=FACE_OUTER_BOUND($,#110,.T.);
#80=FACE_OUTER_BOUND($,#112,.T.);
#81=FACE_OUTER_BOUND($,#113,.T.);
#82=FACE_OUTER_BOUND($,#115,.T.);
#83=FACE_OUTER_BOUND($,#117,.T.);
#84=FACE_OUTER_BOUND($,#118,.T.);
#85=FACE_OUTER_BOUND($,#119,.T.);
#86=FACE_OUTER_BOUND($,#121,.T.);
#87=FACE_OUTER_BOUND($,#123,.T.);
#88=FACE_OUTER_BOUND($,#125,.T.);
#89=EDGE_LOOP($,(#189));
#90=EDGE_LOOP($,(#190));
#91=EDGE_LOOP($,(#191));
#92=EDGE_LOOP($,(#192));
#93=EDGE_LOOP($,(#193));
#94=EDGE_LOOP($,(#194));
#95=EDGE_LOOP($,(#195));
#96=EDGE_LOOP($,(#196));
#97=EDGE_LOOP($,(#197));
#98=EDGE_LOOP($,(#198));
#99=EDGE_LOOP($,(#199));
#100=EDGE_LOOP($,(#200));
#101=EDGE_LOOP($,(#201));
#102=EDGE_LOOP($,(#202));
#103=EDGE_LOOP($,(#203));
#104=EDGE_LOOP($,(#204));
#105=EDGE_LOOP($,(#205));
#106=EDGE_LOOP($,(#206));
#107=EDGE_LOOP($,(#207));
#108=EDGE_LOOP($,(#208));
#109=EDGE_LOOP($,(#209));
#110=EDGE_LOOP($,(#210));
#111=EDGE_LOOP($,(#211));
#112=EDGE_LOOP($,(#212));
#113=EDGE_LOOP($,(#213));
#114=EDGE_LOOP($,(#214));
#115=EDGE_LOOP($,(#215));
#116=EDGE_LOOP($,(#216));
#117=EDGE_LOOP($,(#217));
#118=EDGE_LOOP($,(#218));
#119=EDGE_LOOP($,(#219));
#120=EDGE_LOOP($,(#220));
#121=EDGE_LOOP($,(#221));
#122=EDGE_LOOP($,(#222));
#123=EDGE_LOOP($,(#223));
#124=EDGE_LOOP($,(#224));
#125=EDGE_LOOP($,(#225));
#126=EDGE_LOOP($,(#226));
#127=EDGE_LOOP($,(#227));
#128=EDGE_LOOP($,(#228));
#129=CIRCLE($,#289,9.69999999999998);
#130=CIRCLE($,#291,9.89999999999999);
#131=CIRCLE($,#293,9.89999999999999);
#132=CIRCLE($,#295,9.70681483474217);
#133=CIRCLE($,#297,8.74711647147306);
#134=CIRCLE($,#299,14.);
#135=CIRCLE($,#301,14.);
#136=CIRCLE($,#305,5.);
#137=CIRCLE($,#307,5.00000000000007);
#138=CIRCLE($,#311,3.5);
#139=CIRCLE($,#313,4.);
#140=CIRCLE($,#315,4.);
#141=CIRCLE($,#319,4.);
#142=CIRCLE($,#320,4.);
#143=CIRCLE($,#322,3.49999999999997);
#144=CIRCLE($,#325,14.0000000000001);
#145=CIRCLE($,#327,14.);
#146=CIRCLE($,#329,8.75);
#147=CIRCLE($,#331,9.95);
#148=CIRCLE($,#333,9.95);
#149=VERTEX_POINT($,#448);
#150=VERTEX_POINT($,#451);
#151=VERTEX_POINT($,#454);
#152=VERTEX_POINT($,#457);
#153=VERTEX_POINT($,#460);
#154=VERTEX_POINT($,#463);
#155=VERTEX_POINT($,#466);
#156=VERTEX_POINT($,#471);
#157=VERTEX_POINT($,#474);
#158=VERTEX_POINT($,#479);
#159=VERTEX_POINT($,#482);
#160=VERTEX_POINT($,#485);
#161=VERTEX_POINT($,#490);
#162=VERTEX_POINT($,#492);
#163=VERTEX_POINT($,#495);
#164=VERTEX_POINT($,#499);
#165=VERTEX_POINT($,#502);
#166=VERTEX_POINT($,#505);
#167=VERTEX_POINT($,#508);
#168=VERTEX_POINT($,#511);
#169=EDGE_CURVE($,#149,#149,#129,.T.);
#170=EDGE_CURVE($,#150,#150,#130,.T.);
#171=EDGE_CURVE($,#151,#151,#131,.T.);
#172=EDGE_CURVE($,#152,#152,#132,.T.);
#173=EDGE_CURVE($,#153,#153,#133,.T.);
#174=EDGE_CURVE($,#154,#154,#134,.T.);
#175=EDGE_CURVE($,#155,#155,#135,.T.);
#176=EDGE_CURVE($,#156,#156,#136,.T.);
#177=EDGE_CURVE($,#157,#157,#137,.T.);
#178=EDGE_CURVE($,#158,#158,#138,.T.);
#179=EDGE_CURVE($,#159,#159,#139,.T.);
#180=EDGE_CURVE($,#160,#160,#140,.T.);
#181=EDGE_CURVE($,#161,#161,#141,.T.);
#182=EDGE_CURVE($,#162,#162,#142,.T.);
#183=EDGE_CURVE($,#163,#163,#143,.T.);
#184=EDGE_CURVE($,#164,#164,#144,.T.);
#185=EDGE_CURVE($,#165,#165,#145,.T.);
#186=EDGE_CURVE($,#166,#166,#146,.T.);
#187=EDGE_CURVE($,#167,#167,#147,.T.);
#188=EDGE_CURVE($,#168,#168,#148,.T.);
#189=ORIENTED_EDGE($,*,*,#169,.F.);
#190=ORIENTED_EDGE($,*,*,#170,.F.);
#191=ORIENTED_EDGE($,*,*,#169,.T.);
#192=ORIENTED_EDGE($,*,*,#171,.F.);
#193=ORIENTED_EDGE($,*,*,#170,.T.);
#194=ORIENTED_EDGE($,*,*,#172,.F.);
#195=ORIENTED_EDGE($,*,*,#171,.T.);
#196=ORIENTED_EDGE($,*,*,#173,.F.);
#197=ORIENTED_EDGE($,*,*,#172,.T.);
#198=ORIENTED_EDGE($,*,*,#174,.F.);
#199=ORIENTED_EDGE($,*,*,#173,.T.);
#200=ORIENTED_EDGE($,*,*,#175,.F.);
#201=ORIENTED_EDGE($,*,*,#174,.T.);
#202=ORIENTED_EDGE($,*,*,#175,.T.);
#203=ORIENTED_EDGE($,*,*,#176,.F.);
#204=ORIENTED_EDGE($,*,*,#177,.F.);
#205=ORIENTED_EDGE($,*,*,#176,.T.);
#206=ORIENTED_EDGE($,*,*,#177,.T.);
#207=ORIENTED_EDGE($,*,*,#178,.F.);
#208=ORIENTED_EDGE($,*,*,#179,.F.);
#209=ORIENTED_EDGE($,*,*,#178,.T.);
#210=ORIENTED_EDGE($,*,*,#180,.F.);
#211=ORIENTED_EDGE($,*,*,#179,.T.);
#212=ORIENTED_EDGE($,*,*,#180,.T.);
#213=ORIENTED_EDGE($,*,*,#181,.F.);
#214=ORIENTED_EDGE($,*,*,#182,.T.);
#215=ORIENTED_EDGE($,*,*,#183,.F.);
#216=ORIENTED_EDGE($,*,*,#181,.T.);
#217=ORIENTED_EDGE($,*,*,#183,.T.);
#218=ORIENTED_EDGE($,*,*,#184,.F.);
#219=ORIENTED_EDGE($,*,*,#185,.F.);
#220=ORIENTED_EDGE($,*,*,#184,.T.);
#221=ORIENTED_EDGE($,*,*,#186,.F.);
#222=ORIENTED_EDGE($,*,*,#185,.T.);
#223=ORIENTED_EDGE($,*,*,#187,.F.);
#224=ORIENTED_EDGE($,*,*,#186,.T.);
#225=ORIENTED_EDGE($,*,*,#188,.F.);
#226=ORIENTED_EDGE($,*,*,#187,.T.);
#227=ORIENTED_EDGE($,*,*,#182,.F.);
#228=ORIENTED_EDGE($,*,*,#188,.T.);
#229=PLANE($,#288);
#230=PLANE($,#302);
#231=PLANE($,#304);
#232=PLANE($,#308);
#233=PLANE($,#310);
#234=PLANE($,#316);
#235=PLANE($,#323);
#236=PLANE($,#324);
#237=PLANE($,#334);
#238=STYLED_ITEM($,(#574),#255);
#239=STYLED_ITEM($,(#574),#256);
#240=STYLED_ITEM($,(#574),#257);
#241=STYLED_ITEM($,(#574),#258);
#242=STYLED_ITEM($,(#574),#259);
#243=STYLED_ITEM($,(#573),#261);
#244=STYLED_ITEM($,(#573),#262);
#245=STYLED_ITEM($,(#573),#283);
#246=STYLED_ITEM($,(#573),#284);
#247=STYLED_ITEM($,(#573),#285);
#248=STYLED_ITEM($,(#574),#270);
#249=STYLED_ITEM($,(#574),#271);
#250=STYLED_ITEM($,(#574),#272);
#251=STYLED_ITEM($,(#574),#276);
#252=STYLED_ITEM($,(#574),#277);
#253=STYLED_ITEM($,(#574),#278);
#254=STYLED_ITEM($,(#573),#286);
#255=ADVANCED_FACE($,(#66),#229,.T.);
#256=ADVANCED_FACE($,(#67,#43),#60,.T.);
#257=ADVANCED_FACE($,(#68,#44),#36,.T.);
#258=ADVANCED_FACE($,(#69,#45),#61,.T.);
#259=ADVANCED_FACE($,(#70,#46),#62,.T.);
#260=ADVANCED_FACE($,(#71,#47),#34,.T.);
#261=ADVANCED_FACE($,(#72,#48),#37,.T.);
#262=ADVANCED_FACE($,(#73),#230,.T.);
#263=ADVANCED_FACE($,(#74),#231,.T.);
#264=ADVANCED_FACE($,(#75,#49),#38,.T.);
#265=ADVANCED_FACE($,(#76),#232,.T.);
#266=ADVANCED_FACE($,(#77),#233,.T.);
#267=ADVANCED_FACE($,(#78,#50),#63,.T.);
#268=ADVANCED_FACE($,(#79,#51),#39,.T.);
#269=ADVANCED_FACE($,(#80),#234,.T.);
#270=ADVANCED_FACE($,(#81,#52),#40,.T.);
#271=ADVANCED_FACE($,(#82,#53),#64,.T.);
#272=ADVANCED_FACE($,(#83),#235,.T.);
#273=ADVANCED_FACE($,(#84),#236,.T.);
#274=ADVANCED_FACE($,(#85,#54),#41,.T.);
#275=ADVANCED_FACE($,(#86,#55),#35,.T.);
#276=ADVANCED_FACE($,(#87,#56),#65,.T.);
#277=ADVANCED_FACE($,(#88,#57),#42,.T.);
#278=ADVANCED_FACE($,(#58,#59),#237,.T.);
#279=CLOSED_SHELL($,(#255,#256,#257,#258,#259,#260,#261,#262));
#280=CLOSED_SHELL($,(#263,#264,#265));
#281=CLOSED_SHELL($,(#266,#267,#268,#269));
#282=CLOSED_SHELL($,(#270,#271,#272,#273,#274,#275,#276,#277,#278));
#283=MANIFOLD_SOLID_BREP('Volumenk\X\F6rper1',#279);
#284=MANIFOLD_SOLID_BREP('Volumenk\X\F6rper2',#280);
#285=MANIFOLD_SOLID_BREP('Volumenk\X\F6rper2',#281);
#286=MANIFOLD_SOLID_BREP('Volumenk\X\F6rper1',#282);
#287=AXIS2_PLACEMENT_3D('placement',#446,#340,#341);
#288=AXIS2_PLACEMENT_3D($,#447,#342,#343);
#289=AXIS2_PLACEMENT_3D($,#449,#344,#345);
#290=AXIS2_PLACEMENT_3D($,#450,#346,#347);
#291=AXIS2_PLACEMENT_3D($,#452,#348,#349);
#292=AXIS2_PLACEMENT_3D($,#453,#350,#351);
#293=AXIS2_PLACEMENT_3D($,#455,#352,#353);
#294=AXIS2_PLACEMENT_3D($,#456,#354,#355);
#295=AXIS2_PLACEMENT_3D($,#458,#356,#357);
#296=AXIS2_PLACEMENT_3D($,#459,#358,#359);
#297=AXIS2_PLACEMENT_3D($,#461,#360,#361);
#298=AXIS2_PLACEMENT_3D($,#462,#362,#363);
#299=AXIS2_PLACEMENT_3D($,#464,#364,#365);
#300=AXIS2_PLACEMENT_3D($,#465,#366,#367);
#301=AXIS2_PLACEMENT_3D($,#467,#368,#369);
#302=AXIS2_PLACEMENT_3D($,#468,#370,#371);
#303=AXIS2_PLACEMENT_3D('placement',#469,#372,#373);
#304=AXIS2_PLACEMENT_3D($,#470,#374,#375);
#305=AXIS2_PLACEMENT_3D($,#472,#376,#377);
#306=AXIS2_PLACEMENT_3D($,#473,#378,#379);
#307=AXIS2_PLACEMENT_3D($,#475,#380,#381);
#308=AXIS2_PLACEMENT_3D($,#476,#382,#383);
#309=AXIS2_PLACEMENT_3D('placement',#477,#384,#385);
#310=AXIS2_PLACEMENT_3D($,#478,#386,#387);
#311=AXIS2_PLACEMENT_3D($,#480,#388,#389);
#312=AXIS2_PLACEMENT_3D($,#481,#390,#391);
#313=AXIS2_PLACEMENT_3D($,#483,#392,#393);
#314=AXIS2_PLACEMENT_3D($,#484,#394,#395);
#315=AXIS2_PLACEMENT_3D($,#486,#396,#397);
#316=AXIS2_PLACEMENT_3D($,#487,#398,#399);
#317=AXIS2_PLACEMENT_3D('placement',#488,#400,#401);
#318=AXIS2_PLACEMENT_3D($,#489,#402,#403);
#319=AXIS2_PLACEMENT_3D($,#491,#404,#405);
#320=AXIS2_PLACEMENT_3D($,#493,#406,#407);
#321=AXIS2_PLACEMENT_3D($,#494,#408,#409);
#322=AXIS2_PLACEMENT_3D($,#496,#410,#411);
#323=AXIS2_PLACEMENT_3D($,#497,#412,#413);
#324=AXIS2_PLACEMENT_3D($,#498,#414,#415);
#325=AXIS2_PLACEMENT_3D($,#500,#416,#417);
#326=AXIS2_PLACEMENT_3D($,#501,#418,#419);
#327=AXIS2_PLACEMENT_3D($,#503,#420,#421);
#328=AXIS2_PLACEMENT_3D($,#504,#422,#423);
#329=AXIS2_PLACEMENT_3D($,#506,#424,#425);
#330=AXIS2_PLACEMENT_3D($,#507,#426,#427);
#331=AXIS2_PLACEMENT_3D($,#509,#428,#429);
#332=AXIS2_PLACEMENT_3D($,#510,#430,#431);
#333=AXIS2_PLACEMENT_3D($,#512,#432,#433);
#334=AXIS2_PLACEMENT_3D($,#513,#434,#435);
#335=AXIS2_PLACEMENT_3D('placement',#514,#436,#437);
#336=AXIS2_PLACEMENT_3D($,#515,#438,#439);
#337=AXIS2_PLACEMENT_3D($,#516,#440,#441);
#338=AXIS2_PLACEMENT_3D($,#517,#442,#443);
#339=AXIS2_PLACEMENT_3D($,#518,#444,#445);
#340=DIRECTION('axis',(0.,0.,1.));
#341=DIRECTION('refdir',(1.,0.,0.));
#342=DIRECTION('center_axis',(-1.,0.,0.));
#343=DIRECTION('ref_axis',(0.,0.,1.));
#344=DIRECTION('center_axis',(1.,0.,0.));
#345=DIRECTION('ref_axis',(0.,1.,0.));
#346=DIRECTION('center_axis',(1.,0.,0.));
#347=DIRECTION('ref_axis',(0.,1.,0.));
#348=DIRECTION('center_axis',(1.,0.,0.));
#349=DIRECTION('ref_axis',(0.,1.,0.));
#350=DIRECTION('center_axis',(1.,0.,0.));
#351=DIRECTION('ref_axis',(0.,1.,0.));
#352=DIRECTION('center_axis',(1.,0.,0.));
#353=DIRECTION('ref_axis',(0.,1.,0.));
#354=DIRECTION('center_axis',(-1.,0.,0.));
#355=DIRECTION('ref_axis',(0.,1.,0.));
#356=DIRECTION('center_axis',(1.,0.,0.));
#357=DIRECTION('ref_axis',(0.,1.,0.));
#358=DIRECTION('center_axis',(-1.,0.,0.));
#359=DIRECTION('ref_axis',(0.,1.,0.));
#360=DIRECTION('center_axis',(1.,0.,0.));
#361=DIRECTION('ref_axis',(0.,1.,0.));
#362=DIRECTION('center_axis',(1.,0.,0.));
#363=DIRECTION('ref_axis',(0.,0.,-1.));
#364=DIRECTION('center_axis',(1.,0.,0.));
#365=DIRECTION('ref_axis',(0.,1.,0.));
#366=DIRECTION('center_axis',(1.,0.,0.));
#367=DIRECTION('ref_axis',(0.,1.,0.));
#368=DIRECTION('center_axis',(1.,0.,0.));
#369=DIRECTION('ref_axis',(0.,1.,0.));
#370=DIRECTION('center_axis',(1.,0.,0.));
#371=DIRECTION('ref_axis',(0.,0.,-1.));
#372=DIRECTION('axis',(0.,0.,1.));
#373=DIRECTION('refdir',(1.,0.,0.));
#374=DIRECTION('center_axis',(-1.,0.,0.));
#375=DIRECTION('ref_axis',(0.,0.,1.));
#376=DIRECTION('center_axis',(1.,0.,0.));
#377=DIRECTION('ref_axis',(0.,1.,0.));
#378=DIRECTION('center_axis',(1.,0.,0.));
#379=DIRECTION('ref_axis',(0.,1.,0.));
#380=DIRECTION('center_axis',(1.,0.,0.));
#381=DIRECTION('ref_axis',(0.,1.,0.));
#382=DIRECTION('center_axis',(1.,0.,0.));
#383=DIRECTION('ref_axis',(0.,0.,-1.));
#384=DIRECTION('axis',(0.,0.,1.));
#385=DIRECTION('refdir',(1.,0.,0.));
#386=DIRECTION('center_axis',(-1.,0.,0.));
#387=DIRECTION('ref_axis',(0.,0.,1.));
#388=DIRECTION('center_axis',(1.,0.,0.));
#389=DIRECTION('ref_axis',(0.,1.,0.));
#390=DIRECTION('center_axis',(1.,0.,0.));
#391=DIRECTION('ref_axis',(0.,1.,0.));
#392=DIRECTION('center_axis',(1.,0.,0.));
#393=DIRECTION('ref_axis',(0.,1.,0.));
#394=DIRECTION('center_axis',(1.,0.,0.));
#395=DIRECTION('ref_axis',(0.,1.,0.));
#396=DIRECTION('center_axis',(1.,0.,0.));
#397=DIRECTION('ref_axis',(0.,1.,0.));
#398=DIRECTION('center_axis',(1.,0.,0.));
#399=DIRECTION('ref_axis',(0.,0.,-1.));
#400=DIRECTION('axis',(0.,0.,1.));
#401=DIRECTION('refdir',(1.,0.,0.));
#402=DIRECTION('center_axis',(1.,0.,0.));
#403=DIRECTION('ref_axis',(1.11662334212874E-016,1.,0.));
#404=DIRECTION('center_axis',(1.,0.,0.));
#405=DIRECTION('ref_axis',(1.11662334212874E-016,1.,0.));
#406=DIRECTION('center_axis',(1.,0.,0.));
#407=DIRECTION('ref_axis',(1.11662334212874E-016,1.,0.));
#408=DIRECTION('center_axis',(-1.,0.,0.));
#409=DIRECTION('ref_axis',(1.11662334212874E-016,1.,0.));
#410=DIRECTION('center_axis',(1.,0.,0.));
#411=DIRECTION('ref_axis',(1.11662334212874E-016,1.,0.));
#412=DIRECTION('center_axis',(1.,0.,0.));
#413=DIRECTION('ref_axis',(0.,0.,-1.));
#414=DIRECTION('center_axis',(-1.,0.,0.));
#415=DIRECTION('ref_axis',(0.,0.,1.));
#416=DIRECTION('center_axis',(1.,0.,0.));
#417=DIRECTION('ref_axis',(1.11662334212874E-016,1.,0.));
#418=DIRECTION('center_axis',(1.,0.,0.));
#419=DIRECTION('ref_axis',(1.11662334212874E-016,1.,0.));
#420=DIRECTION('center_axis',(1.,0.,0.));
#421=DIRECTION('ref_axis',(1.11662334212874E-016,1.,0.));
#422=DIRECTION('center_axis',(1.,0.,0.));
#423=DIRECTION('ref_axis',(0.,0.,-1.));
#424=DIRECTION('center_axis',(1.,0.,0.));
#425=DIRECTION('ref_axis',(1.11662334212874E-016,1.,0.));
#426=DIRECTION('center_axis',(1.,0.,0.));
#427=DIRECTION('ref_axis',(1.11662334212874E-016,1.,0.));
#428=DIRECTION('center_axis',(1.,0.,0.));
#429=DIRECTION('ref_axis',(1.11662334212874E-016,1.,0.));
#430=DIRECTION('center_axis',(1.,0.,0.));
#431=DIRECTION('ref_axis',(1.11662334212874E-016,1.,0.));
#432=DIRECTION('center_axis',(1.,0.,0.));
#433=DIRECTION('ref_axis',(1.11662334212874E-016,1.,0.));
#434=DIRECTION('center_axis',(1.,0.,0.));
#435=DIRECTION('ref_axis',(0.,0.,-1.));
#436=DIRECTION('axis',(0.,0.,1.));
#437=DIRECTION('refdir',(1.,0.,0.));
#438=DIRECTION($,(0.,0.,1.));
#439=DIRECTION($,(1.,0.,0.));
#440=DIRECTION($,(-6.94681612568294E-017,-8.67361737988403E-019,1.));
#441=DIRECTION($,(1.,-6.93889390390723E-017,6.94681612568294E-017));
#442=DIRECTION($,(-1.23259516440783E-032,2.37389193643995E-066,1.));
#443=DIRECTION($,(1.,-1.67597927623087E-066,1.23259516440783E-032));
#444=DIRECTION($,(0.,0.,1.));
#445=DIRECTION($,(1.,0.,0.));
#446=CARTESIAN_POINT('',(0.,0.,0.));
#447=CARTESIAN_POINT('Origin',(-8.84708972748172E-016,4.84999999999999,
0.));
#448=CARTESIAN_POINT('',(-1.76941794549634E-015,9.69999999999998,0.));
#449=CARTESIAN_POINT('Origin',(0.,0.,0.));
#450=CARTESIAN_POINT('Origin',(0.0999999999999801,0.,0.));
#451=CARTESIAN_POINT('',(0.200000000000008,9.89999999999999,0.));
#452=CARTESIAN_POINT('Origin',(0.200000000000031,0.,0.));
#453=CARTESIAN_POINT('Origin',(0.562435565298216,0.,0.));
#454=CARTESIAN_POINT('',(0.924871130596421,9.89999999999999,0.));
#455=CARTESIAN_POINT('Origin',(0.924871130596401,0.,0.));
#456=CARTESIAN_POINT('Origin',(1.05075303510667,0.,0.));
#457=CARTESIAN_POINT('',(1.17663493961693,9.70681483474217,0.));
#458=CARTESIAN_POINT('Origin',(1.17663493961693,0.,0.));
#459=CARTESIAN_POINT('Origin',(1.30521014032468,0.,0.));
#460=CARTESIAN_POINT('',(1.43378534103236,8.74711647147306,0.));
#461=CARTESIAN_POINT('Origin',(1.43378534103235,0.,0.));
#462=CARTESIAN_POINT('Origin',(7.45770386239093,0.,0.));
#463=CARTESIAN_POINT('',(7.45770386239093,14.,0.));
#464=CARTESIAN_POINT('Origin',(7.45770386239094,0.,0.));
#465=CARTESIAN_POINT('Origin',(176.728851931195,0.,0.));
#466=CARTESIAN_POINT('',(346.,14.,0.));
#467=CARTESIAN_POINT('Origin',(346.,0.,0.));
#468=CARTESIAN_POINT('Origin',(346.,7.00000000000001,0.));
#469=CARTESIAN_POINT('',(0.,0.,0.));
#470=CARTESIAN_POINT('Origin',(0.,2.5,0.));
#471=CARTESIAN_POINT('',(0.,5.,0.));
#472=CARTESIAN_POINT('Origin',(0.,0.,0.));
#473=CARTESIAN_POINT('Origin',(153.,0.,0.));
#474=CARTESIAN_POINT('',(306.,5.00000000000007,0.));
#475=CARTESIAN_POINT('Origin',(306.,0.,0.));
#476=CARTESIAN_POINT('Origin',(306.,2.50000000000005,0.));
#477=CARTESIAN_POINT('',(0.,0.,0.));
#478=CARTESIAN_POINT('Origin',(-9.,1.75,0.));
#479=CARTESIAN_POINT('',(-9.,3.5,0.));
#480=CARTESIAN_POINT('Origin',(-9.,0.,0.));
#481=CARTESIAN_POINT('Origin',(-8.75,0.,0.));
#482=CARTESIAN_POINT('',(-8.5,4.,0.));
#483=CARTESIAN_POINT('Origin',(-8.5,0.,0.));
#484=CARTESIAN_POINT('Origin',(-4.25,0.,0.));
#485=CARTESIAN_POINT('',(-1.22464679914735E-015,4.,0.));
#486=CARTESIAN_POINT('Origin',(-1.11022302462516E-015,0.,0.));
#487=CARTESIAN_POINT('Origin',(-6.12323399573677E-016,2.,0.));
#488=CARTESIAN_POINT('',(0.,0.,0.));
#489=CARTESIAN_POINT('Origin',(11.75,0.,0.));
#490=CARTESIAN_POINT('',(15.5,4.,0.));
#491=CARTESIAN_POINT('Origin',(15.5,0.,0.));
#492=CARTESIAN_POINT('',(8.,4.,0.));
#493=CARTESIAN_POINT('Origin',(8.,0.,0.));
#494=CARTESIAN_POINT('Origin',(15.75,0.,0.));
#495=CARTESIAN_POINT('',(16.,3.49999999999997,0.));
#496=CARTESIAN_POINT('Origin',(16.,0.,0.));
#497=CARTESIAN_POINT('Origin',(16.,1.74999999999999,0.));
#498=CARTESIAN_POINT('Origin',(0.,7.00000000000002,0.));
#499=CARTESIAN_POINT('',(0.,14.0000000000001,0.));
#500=CARTESIAN_POINT('Origin',(0.,0.,0.));
#501=CARTESIAN_POINT('Origin',(0.179755804574699,0.,0.));
#502=CARTESIAN_POINT('',(0.359511609149399,14.,0.));
#503=CARTESIAN_POINT('Origin',(0.359511609149399,0.,0.));
#504=CARTESIAN_POINT('Origin',(0.359511609149399,0.,0.));
#505=CARTESIAN_POINT('',(6.4,8.75,0.));
#506=CARTESIAN_POINT('Origin',(6.4,0.,0.));
#507=CARTESIAN_POINT('Origin',(6.56076951545867,0.,0.));
#508=CARTESIAN_POINT('',(6.72153903091734,9.95,0.));
#509=CARTESIAN_POINT('Origin',(6.72153903091734,0.,0.));
#510=CARTESIAN_POINT('Origin',(7.36076951545867,0.,0.));
#511=CARTESIAN_POINT('',(8.,9.95,0.));
#512=CARTESIAN_POINT('Origin',(8.,0.,0.));
#513=CARTESIAN_POINT('Origin',(8.,6.975,0.));
#514=CARTESIAN_POINT('',(0.,0.,0.));
#515=CARTESIAN_POINT($,(0.,0.,0.));
#516=CARTESIAN_POINT($,(-306.,2.12330153459561E-014,-3.5527136788005E-014));
#517=CARTESIAN_POINT($,(-306.,2.12330153459561E-014,-3.5527136788005E-014));
#518=CARTESIAN_POINT($,(346.,-3.86351676376543E-014,0.));
#519=UNCERTAINTY_MEASURE_WITH_UNIT(LENGTH_MEASURE(0.01),#529,
'DISTANCE_ACCURACY_VALUE',
'Maximum model space distance between geometric entities at asserted c
onnectivities');
#520=UNCERTAINTY_MEASURE_WITH_UNIT(LENGTH_MEASURE(0.01),#529,
'DISTANCE_ACCURACY_VALUE',
'Maximum model space distance between geometric entities at asserted c
onnectivities');
#521=UNCERTAINTY_MEASURE_WITH_UNIT(LENGTH_MEASURE(0.01),#529,
'DISTANCE_ACCURACY_VALUE',
'Maximum model space distance between geometric entities at asserted c
onnectivities');
#522=UNCERTAINTY_MEASURE_WITH_UNIT(LENGTH_MEASURE(0.01),#529,
'DISTANCE_ACCURACY_VALUE',
'Maximum model space distance between geometric entities at asserted c
onnectivities');
#523=UNCERTAINTY_MEASURE_WITH_UNIT(LENGTH_MEASURE(0.01),#529,
'DISTANCE_ACCURACY_VALUE',
'Maximum model space distance between geometric entities at asserted c
onnectivities');
#524=(
GEOMETRIC_REPRESENTATION_CONTEXT(3)
GLOBAL_UNCERTAINTY_ASSIGNED_CONTEXT((#519))
GLOBAL_UNIT_ASSIGNED_CONTEXT((#529,#532,#530))
REPRESENTATION_CONTEXT('','3D')
);
#525=(
GEOMETRIC_REPRESENTATION_CONTEXT(3)
GLOBAL_UNCERTAINTY_ASSIGNED_CONTEXT((#520))
GLOBAL_UNIT_ASSIGNED_CONTEXT((#529,#532,#530))
REPRESENTATION_CONTEXT('','3D')
);
#526=(
GEOMETRIC_REPRESENTATION_CONTEXT(3)
GLOBAL_UNCERTAINTY_ASSIGNED_CONTEXT((#521))
GLOBAL_UNIT_ASSIGNED_CONTEXT((#529,#532,#530))
REPRESENTATION_CONTEXT('','3D')
);
#527=(
GEOMETRIC_REPRESENTATION_CONTEXT(3)
GLOBAL_UNCERTAINTY_ASSIGNED_CONTEXT((#522))
GLOBAL_UNIT_ASSIGNED_CONTEXT((#529,#532,#530))
REPRESENTATION_CONTEXT('','3D')
);
#528=(
GEOMETRIC_REPRESENTATION_CONTEXT(3)
GLOBAL_UNCERTAINTY_ASSIGNED_CONTEXT((#523))
GLOBAL_UNIT_ASSIGNED_CONTEXT((#529,#532,#530))
REPRESENTATION_CONTEXT('','3D')
);
#529=(
LENGTH_UNIT()
NAMED_UNIT(*)
SI_UNIT(.MILLI.,.METRE.)
);
#530=(
NAMED_UNIT(*)
SI_UNIT($,.STERADIAN.)
SOLID_ANGLE_UNIT()
);
#531=DIMENSIONAL_EXPONENTS(0.,0.,0.,0.,0.,0.,0.);
#532=(
CONVERSION_BASED_UNIT('degree',#534)
NAMED_UNIT(#531)
PLANE_ANGLE_UNIT()
);
#533=(
NAMED_UNIT(*)
PLANE_ANGLE_UNIT()
SI_UNIT($,.RADIAN.)
);
#534=PLANE_ANGLE_MEASURE_WITH_UNIT(PLANE_ANGLE_MEASURE(0.01745329252),#533);
#535=SHAPE_DEFINITION_REPRESENTATION(#540,#549);
#536=SHAPE_DEFINITION_REPRESENTATION(#541,#550);
#537=SHAPE_DEFINITION_REPRESENTATION(#542,#551);
#538=SHAPE_DEFINITION_REPRESENTATION(#543,#552);
#539=SHAPE_DEFINITION_REPRESENTATION(#544,#553);
#540=PRODUCT_DEFINITION_SHAPE('',$,#555);
#541=PRODUCT_DEFINITION_SHAPE('',$,#556);
#542=PRODUCT_DEFINITION_SHAPE('',$,#557);
#543=PRODUCT_DEFINITION_SHAPE('',$,#558);
#544=PRODUCT_DEFINITION_SHAPE('',$,#559);
#545=PRODUCT_DEFINITION_SHAPE($,$,#22);
#546=PRODUCT_DEFINITION_SHAPE($,$,#23);
#547=PRODUCT_DEFINITION_SHAPE($,$,#24);
#548=PRODUCT_DEFINITION_SHAPE($,$,#25);
#549=SHAPE_REPRESENTATION('',(#287),#524);
#550=SHAPE_REPRESENTATION('',(#303),#525);
#551=SHAPE_REPRESENTATION('',(#309),#526);
#552=SHAPE_REPRESENTATION('',(#317),#527);
#553=SHAPE_REPRESENTATION('',(#335,#336,#337,#338,#339),#528);
#554=PRODUCT_DEFINITION_CONTEXT('3D Mechanical Parts',#566,'design');
#555=PRODUCT_DEFINITION('Zylinder_28-','Zylinder_28-',#560,#554);
#556=PRODUCT_DEFINITION('Kolbenstange_10-300','Kolbenstange_10-300',#561,
#554);
#557=PRODUCT_DEFINITION('Gewindeanschlu\X\DF_B0','Gewindeanschlu\X\DF_
B0',#562,#554);
#558=PRODUCT_DEFINITION('Gewindeanschlu\X\DF_N0_28',
'Gewindeanschlu\X\DF_N0_28',#563,#554);
#559=PRODUCT_DEFINITION('H0N0XA3-300-660--004-000N',
'H0N0XA3-300-660--004-000N',#564,#554);
#560=PRODUCT_DEFINITION_FORMATION('',$,#568);
#561=PRODUCT_DEFINITION_FORMATION('',$,#569);
#562=PRODUCT_DEFINITION_FORMATION('',$,#570);
#563=PRODUCT_DEFINITION_FORMATION('',$,#571);
#564=PRODUCT_DEFINITION_FORMATION('',$,#572);
#565=APPLICATION_PROTOCOL_DEFINITION('international standard',
'automotive_design',2009,#566);
#566=APPLICATION_CONTEXT(
'Core Data for Automotive Mechanical Design Process');
#567=PRODUCT_CONTEXT('3D Mechanical Parts',#566,'mechanical');
#568=PRODUCT('Zylinder_28-','Zylinder_28-',$,(#567));
#569=PRODUCT('Kolbenstange_10-300','Kolbenstange_10-300',$,(#567));
#570=PRODUCT('Gewindeanschlu\X\DF_B0','Gewindeanschlu\X\DF_B0',$,(#567));
#571=PRODUCT('Gewindeanschlu\X\DF_N0_28','Gewindeanschlu\X\DF_N0_28',$,
(#567));
#572=PRODUCT('H0N0XA3-300-660--004-000N','H0N0XA3-300-660--004-000N',$,
(#567));
#573=PRESENTATION_STYLE_ASSIGNMENT((#575));
#574=PRESENTATION_STYLE_ASSIGNMENT((#576));
#575=SURFACE_STYLE_USAGE(.BOTH.,#577);
#576=SURFACE_STYLE_USAGE(.BOTH.,#578);
#577=SURFACE_SIDE_STYLE($,(#579));
#578=SURFACE_SIDE_STYLE($,(#580));
#579=SURFACE_STYLE_FILL_AREA(#581);
#580=SURFACE_STYLE_FILL_AREA(#582);
#581=FILL_AREA_STYLE($,(#583));
#582=FILL_AREA_STYLE($,(#584));
#583=FILL_AREA_STYLE_COLOUR($,#585);
#584=FILL_AREA_STYLE_COLOUR($,#586);
#585=COLOUR_RGB('',0.305882352941176,0.305882352941176,0.305882352941176);
#586=COLOUR_RGB('',0.949019607843137,0.925490196078431,0.933333333333333);
ENDSEC;
END-ISO-10303-21;
