ISO-10303-21;
HEADER;
/* Generated by software containing ST-Developer
 * from STEP Tools, Inc. (www.steptools.com) 
 */

FILE_DESCRIPTION(
/* description */ (''),
/* implementation_level */ '2;1');

FILE_NAME(
/* name */ 
'X:\\3D-Zeichnungen\\Zusammenbau-Zeichnungen\\Kundenzeichnungen\\Daemp
fer\\H0N0\\H0N0XB3-350-760-004-000N\\Step-Datei\\H0N0XB3-350-760--004-
000N.stp',
/* time_stamp */ '2018-08-30T15:37:13+02:00',
/* author */ ('CADNEU'),
/* organization */ (''),
/* preprocessor_version */ 'ST-DEVELOPER v16.1',
/* originating_system */ 'Autodesk Inventor 2016',
/* authorisation */ '');

FILE_SCHEMA (('AUTOMOTIVE_DESIGN { 1 0 10303 214 3 1 1 }'));
ENDSEC;

DATA;
#10=MECHANICAL_DESIGN_GEOMETRIC_PRESENTATION_REPRESENTATION('',(#261,#262,
#246,#244,#245,#249,#247,#248,#243,#260,#251,#254,#257,#255,#259,#252,#250,
#256,#258,#253),#534);
#11=ITEM_DEFINED_TRANSFORMATION($,$,#291,#340);
#12=ITEM_DEFINED_TRANSFORMATION($,$,#307,#341);
#13=ITEM_DEFINED_TRANSFORMATION($,$,#313,#342);
#14=ITEM_DEFINED_TRANSFORMATION($,$,#321,#343);
#15=(
REPRESENTATION_RELATIONSHIP($,$,#555,#559)
REPRESENTATION_RELATIONSHIP_WITH_TRANSFORMATION(#11)
SHAPE_REPRESENTATION_RELATIONSHIP()
);
#16=(
REPRESENTATION_RELATIONSHIP($,$,#556,#559)
REPRESENTATION_RELATIONSHIP_WITH_TRANSFORMATION(#12)
SHAPE_REPRESENTATION_RELATIONSHIP()
);
#17=(
REPRESENTATION_RELATIONSHIP($,$,#557,#559)
REPRESENTATION_RELATIONSHIP_WITH_TRANSFORMATION(#13)
SHAPE_REPRESENTATION_RELATIONSHIP()
);
#18=(
REPRESENTATION_RELATIONSHIP($,$,#558,#559)
REPRESENTATION_RELATIONSHIP_WITH_TRANSFORMATION(#14)
SHAPE_REPRESENTATION_RELATIONSHIP()
);
#19=CONTEXT_DEPENDENT_SHAPE_REPRESENTATION(#15,#551);
#20=CONTEXT_DEPENDENT_SHAPE_REPRESENTATION(#16,#552);
#21=CONTEXT_DEPENDENT_SHAPE_REPRESENTATION(#17,#553);
#22=CONTEXT_DEPENDENT_SHAPE_REPRESENTATION(#18,#554);
#23=NEXT_ASSEMBLY_USAGE_OCCURRENCE('Zylinder_28-760:1',
'Zylinder_28-760:1','Zylinder_28-760:1',#565,#561,'Zylinder_28-760:1');
#24=NEXT_ASSEMBLY_USAGE_OCCURRENCE('Kolbenstange_10-760:1',
'Kolbenstange_10-760:1','Kolbenstange_10-760:1',#565,#562,
'Kolbenstange_10-760:1');
#25=NEXT_ASSEMBLY_USAGE_OCCURRENCE('Gewindeanschlu\X\DF_M8x9-B0:1',
'Gewindeanschlu\X\DF_M8x9-B0:1','Gewindeanschlu\X\DF_M8x9-B0:1',#565,#563,
'Gewindeanschlu\X\DF_M8x9-B0:1');
#26=NEXT_ASSEMBLY_USAGE_OCCURRENCE('Gewindeanschlu\X\DF_N0_28:1',
'Gewindeanschlu\X\DF_N0_28:1','Gewindeanschlu\X\DF_N0_28:1',#565,#564,
'Gewindeanschlu\X\DF_N0_28:1');
#27=SHAPE_REPRESENTATION_RELATIONSHIP('SRR','None',#555,#31);
#28=SHAPE_REPRESENTATION_RELATIONSHIP('SRR','None',#556,#32);
#29=SHAPE_REPRESENTATION_RELATIONSHIP('SRR','None',#557,#33);
#30=SHAPE_REPRESENTATION_RELATIONSHIP('SRR','None',#558,#34);
#31=ADVANCED_BREP_SHAPE_REPRESENTATION('',(#35),#529);
#32=ADVANCED_BREP_SHAPE_REPRESENTATION('',(#36),#530);
#33=ADVANCED_BREP_SHAPE_REPRESENTATION('',(#37),#531);
#34=ADVANCED_BREP_SHAPE_REPRESENTATION('',(#38),#532);
#35=MANIFOLD_SOLID_BREP('Volumenk\X\F6rper1',#287);
#36=MANIFOLD_SOLID_BREP('Volumenk\X\F6rper2',#288);
#37=MANIFOLD_SOLID_BREP('Volumenk\X\F6rper2',#289);
#38=MANIFOLD_SOLID_BREP('Volumenk\X\F6rper1',#290);
#39=TOROIDAL_SURFACE('',#302,7.91949399131731,6.08050600868267);
#40=TOROIDAL_SURFACE('',#332,7.89999999999992,6.10000000000008);
#41=CYLINDRICAL_SURFACE('',#296,9.89999999999999);
#42=CYLINDRICAL_SURFACE('',#304,14.);
#43=CYLINDRICAL_SURFACE('',#310,5.00000000000004);
#44=CYLINDRICAL_SURFACE('',#318,4.);
#45=CYLINDRICAL_SURFACE('',#322,4.);
#46=CYLINDRICAL_SURFACE('',#330,14.);
#47=CYLINDRICAL_SURFACE('',#336,9.95);
#48=FACE_BOUND('',#96,.T.);
#49=FACE_BOUND('',#98,.T.);
#50=FACE_BOUND('',#100,.T.);
#51=FACE_BOUND('',#102,.T.);
#52=FACE_BOUND('',#104,.T.);
#53=FACE_BOUND('',#106,.T.);
#54=FACE_BOUND('',#110,.T.);
#55=FACE_BOUND('',#114,.T.);
#56=FACE_BOUND('',#116,.T.);
#57=FACE_BOUND('',#119,.T.);
#58=FACE_BOUND('',#121,.T.);
#59=FACE_BOUND('',#125,.T.);
#60=FACE_BOUND('',#127,.T.);
#61=FACE_BOUND('',#129,.T.);
#62=FACE_BOUND('',#131,.T.);
#63=FACE_BOUND('',#133,.T.);
#64=CONICAL_SURFACE('',#294,9.79999999999998,44.9999999999989);
#65=CONICAL_SURFACE('',#298,9.80340741737108,37.5000000000002);
#66=CONICAL_SURFACE('',#300,9.22696565310762,74.9999999999997);
#67=CONICAL_SURFACE('',#316,3.75,45.0000000000001);
#68=CONICAL_SURFACE('',#325,3.74999999999999,45.0000000000013);
#69=CONICAL_SURFACE('',#334,9.35,75.0000000000001);
#70=FACE_OUTER_BOUND('',#94,.T.);
#71=FACE_OUTER_BOUND('',#95,.T.);
#72=FACE_OUTER_BOUND('',#97,.T.);
#73=FACE_OUTER_BOUND('',#99,.T.);
#74=FACE_OUTER_BOUND('',#101,.T.);
#75=FACE_OUTER_BOUND('',#103,.T.);
#76=FACE_OUTER_BOUND('',#105,.T.);
#77=FACE_OUTER_BOUND('',#107,.T.);
#78=FACE_OUTER_BOUND('',#108,.T.);
#79=FACE_OUTER_BOUND('',#109,.T.);
#80=FACE_OUTER_BOUND('',#111,.T.);
#81=FACE_OUTER_BOUND('',#112,.T.);
#82=FACE_OUTER_BOUND('',#113,.T.);
#83=FACE_OUTER_BOUND('',#115,.T.);
#84=FACE_OUTER_BOUND('',#117,.T.);
#85=FACE_OUTER_BOUND('',#118,.T.);
#86=FACE_OUTER_BOUND('',#120,.T.);
#87=FACE_OUTER_BOUND('',#122,.T.);
#88=FACE_OUTER_BOUND('',#123,.T.);
#89=FACE_OUTER_BOUND('',#124,.T.);
#90=FACE_OUTER_BOUND('',#126,.T.);
#91=FACE_OUTER_BOUND('',#128,.T.);
#92=FACE_OUTER_BOUND('',#130,.T.);
#93=FACE_OUTER_BOUND('',#132,.T.);
#94=EDGE_LOOP('',(#194));
#95=EDGE_LOOP('',(#195));
#96=EDGE_LOOP('',(#196));
#97=EDGE_LOOP('',(#197));
#98=EDGE_LOOP('',(#198));
#99=EDGE_LOOP('',(#199));
#100=EDGE_LOOP('',(#200));
#101=EDGE_LOOP('',(#201));
#102=EDGE_LOOP('',(#202));
#103=EDGE_LOOP('',(#203));
#104=EDGE_LOOP('',(#204));
#105=EDGE_LOOP('',(#205));
#106=EDGE_LOOP('',(#206));
#107=EDGE_LOOP('',(#207));
#108=EDGE_LOOP('',(#208));
#109=EDGE_LOOP('',(#209));
#110=EDGE_LOOP('',(#210));
#111=EDGE_LOOP('',(#211));
#112=EDGE_LOOP('',(#212));
#113=EDGE_LOOP('',(#213));
#114=EDGE_LOOP('',(#214));
#115=EDGE_LOOP('',(#215));
#116=EDGE_LOOP('',(#216));
#117=EDGE_LOOP('',(#217));
#118=EDGE_LOOP('',(#218));
#119=EDGE_LOOP('',(#219));
#120=EDGE_LOOP('',(#220));
#121=EDGE_LOOP('',(#221));
#122=EDGE_LOOP('',(#222));
#123=EDGE_LOOP('',(#223));
#124=EDGE_LOOP('',(#224));
#125=EDGE_LOOP('',(#225));
#126=EDGE_LOOP('',(#226));
#127=EDGE_LOOP('',(#227));
#128=EDGE_LOOP('',(#228));
#129=EDGE_LOOP('',(#229));
#130=EDGE_LOOP('',(#230));
#131=EDGE_LOOP('',(#231));
#132=EDGE_LOOP('',(#232));
#133=EDGE_LOOP('',(#233));
#134=CIRCLE('',#293,9.69999999999998);
#135=CIRCLE('',#295,9.89999999999999);
#136=CIRCLE('',#297,9.89999999999999);
#137=CIRCLE('',#299,9.70681483474217);
#138=CIRCLE('',#301,8.74711647147306);
#139=CIRCLE('',#303,14.);
#140=CIRCLE('',#305,14.);
#141=CIRCLE('',#309,5.);
#142=CIRCLE('',#311,5.00000000000009);
#143=CIRCLE('',#315,3.5);
#144=CIRCLE('',#317,4.);
#145=CIRCLE('',#319,4.);
#146=CIRCLE('',#323,4.);
#147=CIRCLE('',#324,4.);
#148=CIRCLE('',#326,3.49999999999997);
#149=CIRCLE('',#329,14.0000000000001);
#150=CIRCLE('',#331,14.);
#151=CIRCLE('',#333,8.75);
#152=CIRCLE('',#335,9.95);
#153=CIRCLE('',#337,9.95);
#154=VERTEX_POINT('',#452);
#155=VERTEX_POINT('',#455);
#156=VERTEX_POINT('',#458);
#157=VERTEX_POINT('',#461);
#158=VERTEX_POINT('',#464);
#159=VERTEX_POINT('',#467);
#160=VERTEX_POINT('',#470);
#161=VERTEX_POINT('',#475);
#162=VERTEX_POINT('',#478);
#163=VERTEX_POINT('',#483);
#164=VERTEX_POINT('',#486);
#165=VERTEX_POINT('',#489);
#166=VERTEX_POINT('',#494);
#167=VERTEX_POINT('',#496);
#168=VERTEX_POINT('',#499);
#169=VERTEX_POINT('',#503);
#170=VERTEX_POINT('',#506);
#171=VERTEX_POINT('',#509);
#172=VERTEX_POINT('',#512);
#173=VERTEX_POINT('',#515);
#174=EDGE_CURVE('',#154,#154,#134,.T.);
#175=EDGE_CURVE('',#155,#155,#135,.T.);
#176=EDGE_CURVE('',#156,#156,#136,.T.);
#177=EDGE_CURVE('',#157,#157,#137,.T.);
#178=EDGE_CURVE('',#158,#158,#138,.T.);
#179=EDGE_CURVE('',#159,#159,#139,.T.);
#180=EDGE_CURVE('',#160,#160,#140,.T.);
#181=EDGE_CURVE('',#161,#161,#141,.T.);
#182=EDGE_CURVE('',#162,#162,#142,.T.);
#183=EDGE_CURVE('',#163,#163,#143,.T.);
#184=EDGE_CURVE('',#164,#164,#144,.T.);
#185=EDGE_CURVE('',#165,#165,#145,.T.);
#186=EDGE_CURVE('',#166,#166,#146,.T.);
#187=EDGE_CURVE('',#167,#167,#147,.T.);
#188=EDGE_CURVE('',#168,#168,#148,.T.);
#189=EDGE_CURVE('',#169,#169,#149,.T.);
#190=EDGE_CURVE('',#170,#170,#150,.T.);
#191=EDGE_CURVE('',#171,#171,#151,.T.);
#192=EDGE_CURVE('',#172,#172,#152,.T.);
#193=EDGE_CURVE('',#173,#173,#153,.T.);
#194=ORIENTED_EDGE('',*,*,#174,.F.);
#195=ORIENTED_EDGE('',*,*,#175,.F.);
#196=ORIENTED_EDGE('',*,*,#174,.T.);
#197=ORIENTED_EDGE('',*,*,#176,.F.);
#198=ORIENTED_EDGE('',*,*,#175,.T.);
#199=ORIENTED_EDGE('',*,*,#177,.F.);
#200=ORIENTED_EDGE('',*,*,#176,.T.);
#201=ORIENTED_EDGE('',*,*,#178,.F.);
#202=ORIENTED_EDGE('',*,*,#177,.T.);
#203=ORIENTED_EDGE('',*,*,#179,.F.);
#204=ORIENTED_EDGE('',*,*,#178,.T.);
#205=ORIENTED_EDGE('',*,*,#180,.F.);
#206=ORIENTED_EDGE('',*,*,#179,.T.);
#207=ORIENTED_EDGE('',*,*,#180,.T.);
#208=ORIENTED_EDGE('',*,*,#181,.F.);
#209=ORIENTED_EDGE('',*,*,#182,.F.);
#210=ORIENTED_EDGE('',*,*,#181,.T.);
#211=ORIENTED_EDGE('',*,*,#182,.T.);
#212=ORIENTED_EDGE('',*,*,#183,.F.);
#213=ORIENTED_EDGE('',*,*,#184,.F.);
#214=ORIENTED_EDGE('',*,*,#183,.T.);
#215=ORIENTED_EDGE('',*,*,#185,.F.);
#216=ORIENTED_EDGE('',*,*,#184,.T.);
#217=ORIENTED_EDGE('',*,*,#185,.T.);
#218=ORIENTED_EDGE('',*,*,#186,.F.);
#219=ORIENTED_EDGE('',*,*,#187,.T.);
#220=ORIENTED_EDGE('',*,*,#188,.F.);
#221=ORIENTED_EDGE('',*,*,#186,.T.);
#222=ORIENTED_EDGE('',*,*,#188,.T.);
#223=ORIENTED_EDGE('',*,*,#189,.F.);
#224=ORIENTED_EDGE('',*,*,#190,.F.);
#225=ORIENTED_EDGE('',*,*,#189,.T.);
#226=ORIENTED_EDGE('',*,*,#191,.F.);
#227=ORIENTED_EDGE('',*,*,#190,.T.);
#228=ORIENTED_EDGE('',*,*,#192,.F.);
#229=ORIENTED_EDGE('',*,*,#191,.T.);
#230=ORIENTED_EDGE('',*,*,#193,.F.);
#231=ORIENTED_EDGE('',*,*,#192,.T.);
#232=ORIENTED_EDGE('',*,*,#193,.T.);
#233=ORIENTED_EDGE('',*,*,#187,.F.);
#234=PLANE('',#292);
#235=PLANE('',#306);
#236=PLANE('',#308);
#237=PLANE('',#312);
#238=PLANE('',#314);
#239=PLANE('',#320);
#240=PLANE('',#327);
#241=PLANE('',#328);
#242=PLANE('',#338);
#243=STYLED_ITEM('',(#585),#263);
#244=STYLED_ITEM('',(#585),#264);
#245=STYLED_ITEM('',(#585),#265);
#246=STYLED_ITEM('',(#585),#266);
#247=STYLED_ITEM('',(#585),#267);
#248=STYLED_ITEM('',(#586),#268);
#249=STYLED_ITEM('',(#586),#269);
#250=STYLED_ITEM('',(#584),#270);
#251=STYLED_ITEM('',(#584),#35);
#252=STYLED_ITEM('',(#586),#36);
#253=STYLED_ITEM('',(#586),#37);
#254=STYLED_ITEM('',(#585),#278);
#255=STYLED_ITEM('',(#585),#279);
#256=STYLED_ITEM('',(#585),#280);
#257=STYLED_ITEM('',(#586),#282);
#258=STYLED_ITEM('',(#586),#283);
#259=STYLED_ITEM('',(#585),#284);
#260=STYLED_ITEM('',(#585),#285);
#261=STYLED_ITEM('',(#585),#286);
#262=STYLED_ITEM('',(#586),#38);
#263=ADVANCED_FACE('',(#70),#234,.T.);
#264=ADVANCED_FACE('',(#71,#48),#64,.T.);
#265=ADVANCED_FACE('',(#72,#49),#41,.T.);
#266=ADVANCED_FACE('',(#73,#50),#65,.T.);
#267=ADVANCED_FACE('',(#74,#51),#66,.T.);
#268=ADVANCED_FACE('',(#75,#52),#39,.T.);
#269=ADVANCED_FACE('',(#76,#53),#42,.T.);
#270=ADVANCED_FACE('',(#77),#235,.T.);
#271=ADVANCED_FACE('',(#78),#236,.T.);
#272=ADVANCED_FACE('',(#79,#54),#43,.T.);
#273=ADVANCED_FACE('',(#80),#237,.T.);
#274=ADVANCED_FACE('',(#81),#238,.T.);
#275=ADVANCED_FACE('',(#82,#55),#67,.T.);
#276=ADVANCED_FACE('',(#83,#56),#44,.T.);
#277=ADVANCED_FACE('',(#84),#239,.T.);
#278=ADVANCED_FACE('',(#85,#57),#45,.T.);
#279=ADVANCED_FACE('',(#86,#58),#68,.T.);
#280=ADVANCED_FACE('',(#87),#240,.T.);
#281=ADVANCED_FACE('',(#88),#241,.T.);
#282=ADVANCED_FACE('',(#89,#59),#46,.T.);
#283=ADVANCED_FACE('',(#90,#60),#40,.T.);
#284=ADVANCED_FACE('',(#91,#61),#69,.T.);
#285=ADVANCED_FACE('',(#92,#62),#47,.T.);
#286=ADVANCED_FACE('',(#93,#63),#242,.T.);
#287=CLOSED_SHELL('',(#263,#264,#265,#266,#267,#268,#269,#270));
#288=CLOSED_SHELL('',(#271,#272,#273));
#289=CLOSED_SHELL('',(#274,#275,#276,#277));
#290=CLOSED_SHELL('',(#278,#279,#280,#281,#282,#283,#284,#285,#286));
#291=AXIS2_PLACEMENT_3D('placement',#450,#344,#345);
#292=AXIS2_PLACEMENT_3D('',#451,#346,#347);
#293=AXIS2_PLACEMENT_3D('',#453,#348,#349);
#294=AXIS2_PLACEMENT_3D('',#454,#350,#351);
#295=AXIS2_PLACEMENT_3D('',#456,#352,#353);
#296=AXIS2_PLACEMENT_3D('',#457,#354,#355);
#297=AXIS2_PLACEMENT_3D('',#459,#356,#357);
#298=AXIS2_PLACEMENT_3D('',#460,#358,#359);
#299=AXIS2_PLACEMENT_3D('',#462,#360,#361);
#300=AXIS2_PLACEMENT_3D('',#463,#362,#363);
#301=AXIS2_PLACEMENT_3D('',#465,#364,#365);
#302=AXIS2_PLACEMENT_3D('',#466,#366,#367);
#303=AXIS2_PLACEMENT_3D('',#468,#368,#369);
#304=AXIS2_PLACEMENT_3D('',#469,#370,#371);
#305=AXIS2_PLACEMENT_3D('',#471,#372,#373);
#306=AXIS2_PLACEMENT_3D('',#472,#374,#375);
#307=AXIS2_PLACEMENT_3D('placement',#473,#376,#377);
#308=AXIS2_PLACEMENT_3D('',#474,#378,#379);
#309=AXIS2_PLACEMENT_3D('',#476,#380,#381);
#310=AXIS2_PLACEMENT_3D('',#477,#382,#383);
#311=AXIS2_PLACEMENT_3D('',#479,#384,#385);
#312=AXIS2_PLACEMENT_3D('',#480,#386,#387);
#313=AXIS2_PLACEMENT_3D('placement',#481,#388,#389);
#314=AXIS2_PLACEMENT_3D('',#482,#390,#391);
#315=AXIS2_PLACEMENT_3D('',#484,#392,#393);
#316=AXIS2_PLACEMENT_3D('',#485,#394,#395);
#317=AXIS2_PLACEMENT_3D('',#487,#396,#397);
#318=AXIS2_PLACEMENT_3D('',#488,#398,#399);
#319=AXIS2_PLACEMENT_3D('',#490,#400,#401);
#320=AXIS2_PLACEMENT_3D('',#491,#402,#403);
#321=AXIS2_PLACEMENT_3D('placement',#492,#404,#405);
#322=AXIS2_PLACEMENT_3D('',#493,#406,#407);
#323=AXIS2_PLACEMENT_3D('',#495,#408,#409);
#324=AXIS2_PLACEMENT_3D('',#497,#410,#411);
#325=AXIS2_PLACEMENT_3D('',#498,#412,#413);
#326=AXIS2_PLACEMENT_3D('',#500,#414,#415);
#327=AXIS2_PLACEMENT_3D('',#501,#416,#417);
#328=AXIS2_PLACEMENT_3D('',#502,#418,#419);
#329=AXIS2_PLACEMENT_3D('',#504,#420,#421);
#330=AXIS2_PLACEMENT_3D('',#505,#422,#423);
#331=AXIS2_PLACEMENT_3D('',#507,#424,#425);
#332=AXIS2_PLACEMENT_3D('',#508,#426,#427);
#333=AXIS2_PLACEMENT_3D('',#510,#428,#429);
#334=AXIS2_PLACEMENT_3D('',#511,#430,#431);
#335=AXIS2_PLACEMENT_3D('',#513,#432,#433);
#336=AXIS2_PLACEMENT_3D('',#514,#434,#435);
#337=AXIS2_PLACEMENT_3D('',#516,#436,#437);
#338=AXIS2_PLACEMENT_3D('',#517,#438,#439);
#339=AXIS2_PLACEMENT_3D('placement',#518,#440,#441);
#340=AXIS2_PLACEMENT_3D('',#519,#442,#443);
#341=AXIS2_PLACEMENT_3D('',#520,#444,#445);
#342=AXIS2_PLACEMENT_3D('',#521,#446,#447);
#343=AXIS2_PLACEMENT_3D('',#522,#448,#449);
#344=DIRECTION('axis',(0.,0.,1.));
#345=DIRECTION('refdir',(1.,0.,0.));
#346=DIRECTION('center_axis',(-1.,0.,0.));
#347=DIRECTION('ref_axis',(0.,0.,1.));
#348=DIRECTION('center_axis',(1.,0.,0.));
#349=DIRECTION('ref_axis',(0.,1.,0.));
#350=DIRECTION('center_axis',(1.,0.,0.));
#351=DIRECTION('ref_axis',(0.,1.,0.));
#352=DIRECTION('center_axis',(1.,0.,0.));
#353=DIRECTION('ref_axis',(0.,1.,0.));
#354=DIRECTION('center_axis',(1.,0.,0.));
#355=DIRECTION('ref_axis',(0.,1.,0.));
#356=DIRECTION('center_axis',(1.,0.,0.));
#357=DIRECTION('ref_axis',(0.,1.,0.));
#358=DIRECTION('center_axis',(-1.,0.,0.));
#359=DIRECTION('ref_axis',(0.,1.,0.));
#360=DIRECTION('center_axis',(1.,0.,0.));
#361=DIRECTION('ref_axis',(0.,1.,0.));
#362=DIRECTION('center_axis',(-1.,0.,0.));
#363=DIRECTION('ref_axis',(0.,1.,0.));
#364=DIRECTION('center_axis',(1.,0.,0.));
#365=DIRECTION('ref_axis',(0.,1.,0.));
#366=DIRECTION('center_axis',(1.,0.,0.));
#367=DIRECTION('ref_axis',(0.,0.,-1.));
#368=DIRECTION('center_axis',(1.,0.,0.));
#369=DIRECTION('ref_axis',(0.,1.,0.));
#370=DIRECTION('center_axis',(1.,0.,0.));
#371=DIRECTION('ref_axis',(0.,1.,0.));
#372=DIRECTION('center_axis',(1.,0.,0.));
#373=DIRECTION('ref_axis',(0.,1.,0.));
#374=DIRECTION('center_axis',(1.,0.,0.));
#375=DIRECTION('ref_axis',(0.,0.,-1.));
#376=DIRECTION('axis',(0.,0.,1.));
#377=DIRECTION('refdir',(1.,0.,0.));
#378=DIRECTION('center_axis',(-1.,0.,0.));
#379=DIRECTION('ref_axis',(0.,0.,1.));
#380=DIRECTION('center_axis',(1.,0.,0.));
#381=DIRECTION('ref_axis',(0.,1.,0.));
#382=DIRECTION('center_axis',(1.,0.,0.));
#383=DIRECTION('ref_axis',(0.,1.,0.));
#384=DIRECTION('center_axis',(1.,0.,0.));
#385=DIRECTION('ref_axis',(0.,1.,0.));
#386=DIRECTION('center_axis',(1.,0.,0.));
#387=DIRECTION('ref_axis',(0.,0.,-1.));
#388=DIRECTION('axis',(0.,0.,1.));
#389=DIRECTION('refdir',(1.,0.,0.));
#390=DIRECTION('center_axis',(-1.,0.,0.));
#391=DIRECTION('ref_axis',(0.,0.,1.));
#392=DIRECTION('center_axis',(1.,0.,0.));
#393=DIRECTION('ref_axis',(0.,1.,0.));
#394=DIRECTION('center_axis',(1.,0.,0.));
#395=DIRECTION('ref_axis',(0.,1.,0.));
#396=DIRECTION('center_axis',(1.,0.,0.));
#397=DIRECTION('ref_axis',(0.,1.,0.));
#398=DIRECTION('center_axis',(1.,0.,0.));
#399=DIRECTION('ref_axis',(0.,1.,0.));
#400=DIRECTION('center_axis',(1.,0.,0.));
#401=DIRECTION('ref_axis',(0.,1.,0.));
#402=DIRECTION('center_axis',(1.,0.,0.));
#403=DIRECTION('ref_axis',(0.,0.,-1.));
#404=DIRECTION('axis',(0.,0.,1.));
#405=DIRECTION('refdir',(1.,0.,0.));
#406=DIRECTION('center_axis',(1.,0.,0.));
#407=DIRECTION('ref_axis',(1.11662334212874E-16,1.,0.));
#408=DIRECTION('center_axis',(1.,0.,0.));
#409=DIRECTION('ref_axis',(1.11662334212874E-16,1.,0.));
#410=DIRECTION('center_axis',(1.,0.,0.));
#411=DIRECTION('ref_axis',(1.11662334212874E-16,1.,0.));
#412=DIRECTION('center_axis',(-1.,0.,0.));
#413=DIRECTION('ref_axis',(1.11662334212874E-16,1.,0.));
#414=DIRECTION('center_axis',(1.,0.,0.));
#415=DIRECTION('ref_axis',(1.11662334212874E-16,1.,0.));
#416=DIRECTION('center_axis',(1.,0.,0.));
#417=DIRECTION('ref_axis',(0.,0.,-1.));
#418=DIRECTION('center_axis',(-1.,0.,0.));
#419=DIRECTION('ref_axis',(0.,0.,1.));
#420=DIRECTION('center_axis',(1.,0.,0.));
#421=DIRECTION('ref_axis',(1.11662334212874E-16,1.,0.));
#422=DIRECTION('center_axis',(1.,0.,0.));
#423=DIRECTION('ref_axis',(1.11662334212874E-16,1.,0.));
#424=DIRECTION('center_axis',(1.,0.,0.));
#425=DIRECTION('ref_axis',(1.11662334212874E-16,1.,0.));
#426=DIRECTION('center_axis',(1.,0.,0.));
#427=DIRECTION('ref_axis',(0.,0.,-1.));
#428=DIRECTION('center_axis',(1.,0.,0.));
#429=DIRECTION('ref_axis',(1.11662334212874E-16,1.,0.));
#430=DIRECTION('center_axis',(1.,0.,0.));
#431=DIRECTION('ref_axis',(1.11662334212874E-16,1.,0.));
#432=DIRECTION('center_axis',(1.,0.,0.));
#433=DIRECTION('ref_axis',(1.11662334212874E-16,1.,0.));
#434=DIRECTION('center_axis',(1.,0.,0.));
#435=DIRECTION('ref_axis',(1.11662334212874E-16,1.,0.));
#436=DIRECTION('center_axis',(1.,0.,0.));
#437=DIRECTION('ref_axis',(1.11662334212874E-16,1.,0.));
#438=DIRECTION('center_axis',(1.,0.,0.));
#439=DIRECTION('ref_axis',(0.,0.,-1.));
#440=DIRECTION('axis',(0.,0.,1.));
#441=DIRECTION('refdir',(1.,0.,0.));
#442=DIRECTION('',(0.,0.,1.));
#443=DIRECTION('',(1.,0.,0.));
#444=DIRECTION('',(-6.94681612568294E-17,-8.67361737988403E-19,1.));
#445=DIRECTION('',(1.,-6.93889390390723E-17,6.94681612568294E-17));
#446=DIRECTION('',(7.81024791769626E-18,6.53643805748062E-15,1.));
#447=DIRECTION('',(1.,-9.71445146546969E-17,-7.81024791769563E-18));
#448=DIRECTION('',(0.,0.,1.));
#449=DIRECTION('',(1.,0.,0.));
#450=CARTESIAN_POINT('',(0.,0.,0.));
#451=CARTESIAN_POINT('Origin',(-8.84708972748172E-16,4.84999999999999,0.));
#452=CARTESIAN_POINT('',(-1.76941794549634E-15,9.69999999999998,0.));
#453=CARTESIAN_POINT('Origin',(0.,0.,0.));
#454=CARTESIAN_POINT('Origin',(0.0999999999999801,0.,0.));
#455=CARTESIAN_POINT('',(0.200000000000008,9.89999999999999,0.));
#456=CARTESIAN_POINT('Origin',(0.200000000000031,0.,0.));
#457=CARTESIAN_POINT('Origin',(0.562435565298216,0.,0.));
#458=CARTESIAN_POINT('',(0.924871130596421,9.89999999999999,0.));
#459=CARTESIAN_POINT('Origin',(0.924871130596401,0.,0.));
#460=CARTESIAN_POINT('Origin',(1.05075303510667,0.,0.));
#461=CARTESIAN_POINT('',(1.17663493961693,9.70681483474217,0.));
#462=CARTESIAN_POINT('Origin',(1.17663493961693,0.,0.));
#463=CARTESIAN_POINT('Origin',(1.30521014032468,0.,0.));
#464=CARTESIAN_POINT('',(1.43378534103236,8.74711647147306,0.));
#465=CARTESIAN_POINT('Origin',(1.43378534103235,0.,0.));
#466=CARTESIAN_POINT('Origin',(7.45770386239093,0.,0.));
#467=CARTESIAN_POINT('',(7.45770386239093,14.,0.));
#468=CARTESIAN_POINT('Origin',(7.45770386239094,0.,0.));
#469=CARTESIAN_POINT('Origin',(199.728851931195,0.,0.));
#470=CARTESIAN_POINT('',(392.,14.,0.));
#471=CARTESIAN_POINT('Origin',(392.,0.,0.));
#472=CARTESIAN_POINT('Origin',(392.,7.00000000000001,0.));
#473=CARTESIAN_POINT('',(0.,0.,0.));
#474=CARTESIAN_POINT('Origin',(0.,2.5,0.));
#475=CARTESIAN_POINT('',(0.,5.,0.));
#476=CARTESIAN_POINT('Origin',(0.,0.,0.));
#477=CARTESIAN_POINT('Origin',(183.,0.,0.));
#478=CARTESIAN_POINT('',(366.,5.00000000000009,0.));
#479=CARTESIAN_POINT('Origin',(366.,0.,0.));
#480=CARTESIAN_POINT('Origin',(366.,2.50000000000006,0.));
#481=CARTESIAN_POINT('',(0.,0.,0.));
#482=CARTESIAN_POINT('Origin',(-9.,1.75,0.));
#483=CARTESIAN_POINT('',(-9.,3.5,0.));
#484=CARTESIAN_POINT('Origin',(-9.,0.,0.));
#485=CARTESIAN_POINT('Origin',(-8.75,0.,0.));
#486=CARTESIAN_POINT('',(-8.5,4.,0.));
#487=CARTESIAN_POINT('Origin',(-8.5,0.,0.));
#488=CARTESIAN_POINT('Origin',(-4.25,0.,0.));
#489=CARTESIAN_POINT('',(-1.22464679914735E-15,4.,0.));
#490=CARTESIAN_POINT('Origin',(-1.11022302462516E-15,0.,0.));
#491=CARTESIAN_POINT('Origin',(-6.12323399573677E-16,2.,0.));
#492=CARTESIAN_POINT('',(0.,0.,0.));
#493=CARTESIAN_POINT('Origin',(11.75,0.,0.));
#494=CARTESIAN_POINT('',(15.5,4.,0.));
#495=CARTESIAN_POINT('Origin',(15.5,0.,0.));
#496=CARTESIAN_POINT('',(8.,4.,0.));
#497=CARTESIAN_POINT('Origin',(8.,0.,0.));
#498=CARTESIAN_POINT('Origin',(15.75,0.,0.));
#499=CARTESIAN_POINT('',(16.,3.49999999999997,0.));
#500=CARTESIAN_POINT('Origin',(16.,0.,0.));
#501=CARTESIAN_POINT('Origin',(16.,1.74999999999999,0.));
#502=CARTESIAN_POINT('Origin',(0.,7.00000000000002,0.));
#503=CARTESIAN_POINT('',(0.,14.0000000000001,0.));
#504=CARTESIAN_POINT('Origin',(0.,0.,0.));
#505=CARTESIAN_POINT('Origin',(0.179755804574699,0.,0.));
#506=CARTESIAN_POINT('',(0.359511609149399,14.,0.));
#507=CARTESIAN_POINT('Origin',(0.359511609149399,0.,0.));
#508=CARTESIAN_POINT('Origin',(0.359511609149399,0.,0.));
#509=CARTESIAN_POINT('',(6.4,8.75,0.));
#510=CARTESIAN_POINT('Origin',(6.4,0.,0.));
#511=CARTESIAN_POINT('Origin',(6.56076951545867,0.,0.));
#512=CARTESIAN_POINT('',(6.72153903091734,9.95,0.));
#513=CARTESIAN_POINT('Origin',(6.72153903091734,0.,0.));
#514=CARTESIAN_POINT('Origin',(7.36076951545867,0.,0.));
#515=CARTESIAN_POINT('',(8.,9.95,0.));
#516=CARTESIAN_POINT('Origin',(8.,0.,0.));
#517=CARTESIAN_POINT('Origin',(8.,6.975,0.));
#518=CARTESIAN_POINT('',(0.,0.,0.));
#519=CARTESIAN_POINT('',(0.,0.,0.));
#520=CARTESIAN_POINT('',(-366.,2.53963516883005E-14,-2.54253470199996E-14));
#521=CARTESIAN_POINT('',(-366.,1.77635683940025E-14,-2.66453525910038E-14));
#522=CARTESIAN_POINT('',(392.,-4.37716350114465E-14,0.));
#523=UNCERTAINTY_MEASURE_WITH_UNIT(LENGTH_MEASURE(0.01),#535,
'DISTANCE_ACCURACY_VALUE',
'Maximum model space distance between geometric entities at asserted c
onnectivities');
#524=UNCERTAINTY_MEASURE_WITH_UNIT(LENGTH_MEASURE(0.01),#535,
'DISTANCE_ACCURACY_VALUE',
'Maximum model space distance between geometric entities at asserted c
onnectivities');
#525=UNCERTAINTY_MEASURE_WITH_UNIT(LENGTH_MEASURE(0.01),#535,
'DISTANCE_ACCURACY_VALUE',
'Maximum model space distance between geometric entities at asserted c
onnectivities');
#526=UNCERTAINTY_MEASURE_WITH_UNIT(LENGTH_MEASURE(0.01),#535,
'DISTANCE_ACCURACY_VALUE',
'Maximum model space distance between geometric entities at asserted c
onnectivities');
#527=UNCERTAINTY_MEASURE_WITH_UNIT(LENGTH_MEASURE(0.01),#535,
'DISTANCE_ACCURACY_VALUE',
'Maximum model space distance between geometric entities at asserted c
onnectivities');
#528=UNCERTAINTY_MEASURE_WITH_UNIT(LENGTH_MEASURE(1.E-6),#535,
'DISTANCE_ACCURACY_VALUE',
'Maximum model space distance between geometric entities at asserted c
onnectivities');
#529=(
GEOMETRIC_REPRESENTATION_CONTEXT(3)
GLOBAL_UNCERTAINTY_ASSIGNED_CONTEXT((#523))
GLOBAL_UNIT_ASSIGNED_CONTEXT((#535,#538,#536))
REPRESENTATION_CONTEXT('','3D')
);
#530=(
GEOMETRIC_REPRESENTATION_CONTEXT(3)
GLOBAL_UNCERTAINTY_ASSIGNED_CONTEXT((#524))
GLOBAL_UNIT_ASSIGNED_CONTEXT((#535,#538,#536))
REPRESENTATION_CONTEXT('','3D')
);
#531=(
GEOMETRIC_REPRESENTATION_CONTEXT(3)
GLOBAL_UNCERTAINTY_ASSIGNED_CONTEXT((#525))
GLOBAL_UNIT_ASSIGNED_CONTEXT((#535,#538,#536))
REPRESENTATION_CONTEXT('','3D')
);
#532=(
GEOMETRIC_REPRESENTATION_CONTEXT(3)
GLOBAL_UNCERTAINTY_ASSIGNED_CONTEXT((#526))
GLOBAL_UNIT_ASSIGNED_CONTEXT((#535,#538,#536))
REPRESENTATION_CONTEXT('','3D')
);
#533=(
GEOMETRIC_REPRESENTATION_CONTEXT(3)
GLOBAL_UNCERTAINTY_ASSIGNED_CONTEXT((#527))
GLOBAL_UNIT_ASSIGNED_CONTEXT((#535,#538,#536))
REPRESENTATION_CONTEXT('','3D')
);
#534=(
GEOMETRIC_REPRESENTATION_CONTEXT(3)
GLOBAL_UNCERTAINTY_ASSIGNED_CONTEXT((#528))
GLOBAL_UNIT_ASSIGNED_CONTEXT((#535,#538,#536))
REPRESENTATION_CONTEXT('','3D')
);
#535=(
LENGTH_UNIT()
NAMED_UNIT(*)
SI_UNIT(.MILLI.,.METRE.)
);
#536=(
NAMED_UNIT(*)
SI_UNIT($,.STERADIAN.)
SOLID_ANGLE_UNIT()
);
#537=DIMENSIONAL_EXPONENTS(0.,0.,0.,0.,0.,0.,0.);
#538=(
CONVERSION_BASED_UNIT('degree',#540)
NAMED_UNIT(#537)
PLANE_ANGLE_UNIT()
);
#539=(
NAMED_UNIT(*)
PLANE_ANGLE_UNIT()
SI_UNIT($,.RADIAN.)
);
#540=PLANE_ANGLE_MEASURE_WITH_UNIT(PLANE_ANGLE_MEASURE(0.01745329252),#539);
#541=SHAPE_DEFINITION_REPRESENTATION(#546,#555);
#542=SHAPE_DEFINITION_REPRESENTATION(#547,#556);
#543=SHAPE_DEFINITION_REPRESENTATION(#548,#557);
#544=SHAPE_DEFINITION_REPRESENTATION(#549,#558);
#545=SHAPE_DEFINITION_REPRESENTATION(#550,#559);
#546=PRODUCT_DEFINITION_SHAPE('',$,#561);
#547=PRODUCT_DEFINITION_SHAPE('',$,#562);
#548=PRODUCT_DEFINITION_SHAPE('',$,#563);
#549=PRODUCT_DEFINITION_SHAPE('',$,#564);
#550=PRODUCT_DEFINITION_SHAPE('',$,#565);
#551=PRODUCT_DEFINITION_SHAPE($,$,#23);
#552=PRODUCT_DEFINITION_SHAPE($,$,#24);
#553=PRODUCT_DEFINITION_SHAPE($,$,#25);
#554=PRODUCT_DEFINITION_SHAPE($,$,#26);
#555=SHAPE_REPRESENTATION('',(#291),#529);
#556=SHAPE_REPRESENTATION('',(#307),#530);
#557=SHAPE_REPRESENTATION('',(#313),#531);
#558=SHAPE_REPRESENTATION('',(#321),#532);
#559=SHAPE_REPRESENTATION('',(#339,#340,#341,#342,#343),#533);
#560=PRODUCT_DEFINITION_CONTEXT('part definition',#577,'design');
#561=PRODUCT_DEFINITION('Zylinder_28-760','Zylinder_28-760',#566,#560);
#562=PRODUCT_DEFINITION('Kolbenstange_10-760','Kolbenstange_10-760',#567,
#560);
#563=PRODUCT_DEFINITION('Gewindeanschlu\X\DF_M8x9-B0',
'Gewindeanschlu\X\DF_M8x9-B0',#568,#560);
#564=PRODUCT_DEFINITION('Gewindeanschlu\X\DF_N0_28',
'Gewindeanschlu\X\DF_N0_28',#569,#560);
#565=PRODUCT_DEFINITION('H0N0XB3-350-760--004-000N',
'H0N0XB3-350-760--004-000N',#570,#560);
#566=PRODUCT_DEFINITION_FORMATION('',$,#579);
#567=PRODUCT_DEFINITION_FORMATION('',$,#580);
#568=PRODUCT_DEFINITION_FORMATION('',$,#581);
#569=PRODUCT_DEFINITION_FORMATION('',$,#582);
#570=PRODUCT_DEFINITION_FORMATION('',$,#583);
#571=PRODUCT_RELATED_PRODUCT_CATEGORY('Zylinder_28-760',
'Zylinder_28-760',(#579));
#572=PRODUCT_RELATED_PRODUCT_CATEGORY('Kolbenstange_10-760',
'Kolbenstange_10-760',(#580));
#573=PRODUCT_RELATED_PRODUCT_CATEGORY('Gewindeanschlu\X\DF_M8x9-B0',
'Gewindeanschlu\X\DF_M8x9-B0',(#581));
#574=PRODUCT_RELATED_PRODUCT_CATEGORY('Gewindeanschlu\X\DF_N0_28',
'Gewindeanschlu\X\DF_N0_28',(#582));
#575=PRODUCT_RELATED_PRODUCT_CATEGORY('H0N0XB3-350-760--004-000N',
'H0N0XB3-350-760--004-000N',(#583));
#576=APPLICATION_PROTOCOL_DEFINITION('international standard',
'automotive_design',2009,#577);
#577=APPLICATION_CONTEXT(
'Core Data for Automotive Mechanical Design Process');
#578=PRODUCT_CONTEXT('part definition',#577,'mechanical');
#579=PRODUCT('Zylinder_28-760','Zylinder_28-760',$,(#578));
#580=PRODUCT('Kolbenstange_10-760','Kolbenstange_10-760',$,(#578));
#581=PRODUCT('Gewindeanschlu\X\DF_M8x9-B0','Gewindeanschlu\X\DF_M8x9-B
0',$,(#578));
#582=PRODUCT('Gewindeanschlu\X\DF_N0_28','Gewindeanschlu\X\DF_N0_28',$,
(#578));
#583=PRODUCT('H0N0XB3-350-760--004-000N','H0N0XB3-350-760--004-000N',$,
(#578));
#584=PRESENTATION_STYLE_ASSIGNMENT((#587));
#585=PRESENTATION_STYLE_ASSIGNMENT((#588));
#586=PRESENTATION_STYLE_ASSIGNMENT((#589));
#587=SURFACE_STYLE_USAGE(.BOTH.,#590);
#588=SURFACE_STYLE_USAGE(.BOTH.,#591);
#589=SURFACE_STYLE_USAGE(.BOTH.,#592);
#590=SURFACE_SIDE_STYLE('',(#593));
#591=SURFACE_SIDE_STYLE('',(#594));
#592=SURFACE_SIDE_STYLE('',(#595));
#593=SURFACE_STYLE_FILL_AREA(#596);
#594=SURFACE_STYLE_FILL_AREA(#597);
#595=SURFACE_STYLE_FILL_AREA(#598);
#596=FILL_AREA_STYLE('',(#599));
#597=FILL_AREA_STYLE('',(#600));
#598=FILL_AREA_STYLE('',(#601));
#599=FILL_AREA_STYLE_COLOUR('',#602);
#600=FILL_AREA_STYLE_COLOUR('',#603);
#601=FILL_AREA_STYLE_COLOUR('',#604);
#602=COLOUR_RGB('',0.305882352941176,0.305882352941176,0.305882352941176);
#603=COLOUR_RGB('',0.949019607843137,0.925490196078431,0.933333333333333);
#604=COLOUR_RGB('',0.282352941176471,0.27843137254902,0.23921568627451);
ENDSEC;
END-ISO-10303-21;
