ISO-10303-21;
HEADER;
/* Generated by software containing ST-Developer
 * from STEP Tools, Inc. (www.steptools.com) 
 */

FILE_DESCRIPTION(
/* description */ (''),
/* implementation_level */ '2;1');

FILE_NAME(
/* name */ 
'C:\\eigene Dateien\\CAD-Bereich\\3D-Stepdateien\\Allgemein\\JM\\GF-06
15-Hub-120-EBL-267.stp',
/* time_stamp */ '2016-03-07T10:34:48+01:00',
/* author */ ('CADNEU'),
/* organization */ (''),
/* preprocessor_version */ 'ST-DEVELOPER v15.2',
/* originating_system */ 'Autodesk Inventor 2014',
/* authorisation */ '');

FILE_SCHEMA (('AUTOMOTIVE_DESIGN { 1 0 10303 214 3 1 1 }'));
ENDSEC;

DATA;
#10=MECHANICAL_DESIGN_GEOMETRIC_PRESENTATION_REPRESENTATION('',(#234,#233,
#232,#219,#229,#220,#221,#230,#228,#227,#222,#223,#224,#225,#231,#226),
#490);
#11=ITEM_DEFINED_TRANSFORMATION($,$,#265,#310);
#12=ITEM_DEFINED_TRANSFORMATION($,$,#277,#311);
#13=ITEM_DEFINED_TRANSFORMATION($,$,#283,#312);
#14=ITEM_DEFINED_TRANSFORMATION($,$,#301,#313);
#15=(
REPRESENTATION_RELATIONSHIP($,$,#511,#515)
REPRESENTATION_RELATIONSHIP_WITH_TRANSFORMATION(#11)
SHAPE_REPRESENTATION_RELATIONSHIP()
);
#16=(
REPRESENTATION_RELATIONSHIP($,$,#512,#515)
REPRESENTATION_RELATIONSHIP_WITH_TRANSFORMATION(#12)
SHAPE_REPRESENTATION_RELATIONSHIP()
);
#17=(
REPRESENTATION_RELATIONSHIP($,$,#513,#515)
REPRESENTATION_RELATIONSHIP_WITH_TRANSFORMATION(#13)
SHAPE_REPRESENTATION_RELATIONSHIP()
);
#18=(
REPRESENTATION_RELATIONSHIP($,$,#514,#515)
REPRESENTATION_RELATIONSHIP_WITH_TRANSFORMATION(#14)
SHAPE_REPRESENTATION_RELATIONSHIP()
);
#19=CONTEXT_DEPENDENT_SHAPE_REPRESENTATION(#15,#507);
#20=CONTEXT_DEPENDENT_SHAPE_REPRESENTATION(#16,#508);
#21=CONTEXT_DEPENDENT_SHAPE_REPRESENTATION(#17,#509);
#22=CONTEXT_DEPENDENT_SHAPE_REPRESENTATION(#18,#510);
#23=NEXT_ASSEMBLY_USAGE_OCCURRENCE('Zylinder_15:1',$,$,#521,#517,$);
#24=NEXT_ASSEMBLY_USAGE_OCCURRENCE('Kolbenstange_06:1',$,$,#521,#518,$);
#25=NEXT_ASSEMBLY_USAGE_OCCURRENCE('Gewindeanschlu\X\DF_V0_15:1',$,$,#521,
#519,$);
#26=NEXT_ASSEMBLY_USAGE_OCCURRENCE('Gewindeanschlu\X\DF_V0:1',$,$,#521,
#520,$);
#27=SHAPE_REPRESENTATION_RELATIONSHIP('SRR','None',#511,#31);
#28=SHAPE_REPRESENTATION_RELATIONSHIP('SRR','None',#512,#32);
#29=SHAPE_REPRESENTATION_RELATIONSHIP('SRR','None',#513,#33);
#30=SHAPE_REPRESENTATION_RELATIONSHIP('SRR','None',#514,#34);
#31=ADVANCED_BREP_SHAPE_REPRESENTATION($,(#261),#485);
#32=ADVANCED_BREP_SHAPE_REPRESENTATION($,(#262),#486);
#33=ADVANCED_BREP_SHAPE_REPRESENTATION($,(#263),#487);
#34=ADVANCED_BREP_SHAPE_REPRESENTATION($,(#264),#488);
#35=TOROIDAL_SURFACE('',#274,4.44000004000816,3.05999995999187);
#36=TOROIDAL_SURFACE('',#288,4.40000100913445,3.10000000000002);
#37=CONICAL_SURFACE('',#272,5.34858292181948,74.9999999999997);
#38=CONICAL_SURFACE('',#290,5.38364501008995,74.6938610259098);
#39=CONICAL_SURFACE('',#298,2.325,45.0000000000004);
#40=CONICAL_SURFACE('',#306,2.35,45.);
#41=FACE_BOUND('',#87,.T.);
#42=FACE_BOUND('',#89,.T.);
#43=FACE_BOUND('',#91,.T.);
#44=FACE_BOUND('',#93,.T.);
#45=FACE_BOUND('',#96,.T.);
#46=FACE_BOUND('',#100,.T.);
#47=FACE_BOUND('',#102,.T.);
#48=FACE_BOUND('',#104,.T.);
#49=FACE_BOUND('',#106,.T.);
#50=FACE_BOUND('',#107,.T.);
#51=FACE_BOUND('',#108,.T.);
#52=FACE_BOUND('',#110,.T.);
#53=FACE_BOUND('',#112,.T.);
#54=FACE_BOUND('',#116,.T.);
#55=FACE_BOUND('',#118,.T.);
#56=CYLINDRICAL_SURFACE('',#270,5.40000001530313);
#57=CYLINDRICAL_SURFACE('',#276,7.50000000000003);
#58=CYLINDRICAL_SURFACE('',#280,3.00000000000001);
#59=CYLINDRICAL_SURFACE('',#286,7.5);
#60=CYLINDRICAL_SURFACE('',#292,5.44999892841209);
#61=CYLINDRICAL_SURFACE('',#296,2.5);
#62=CYLINDRICAL_SURFACE('',#304,2.5);
#63=FACE_OUTER_BOUND('',#84,.T.);
#64=FACE_OUTER_BOUND('',#85,.T.);
#65=FACE_OUTER_BOUND('',#86,.T.);
#66=FACE_OUTER_BOUND('',#88,.T.);
#67=FACE_OUTER_BOUND('',#90,.T.);
#68=FACE_OUTER_BOUND('',#92,.T.);
#69=FACE_OUTER_BOUND('',#94,.T.);
#70=FACE_OUTER_BOUND('',#95,.T.);
#71=FACE_OUTER_BOUND('',#97,.T.);
#72=FACE_OUTER_BOUND('',#98,.T.);
#73=FACE_OUTER_BOUND('',#99,.T.);
#74=FACE_OUTER_BOUND('',#101,.T.);
#75=FACE_OUTER_BOUND('',#103,.T.);
#76=FACE_OUTER_BOUND('',#105,.T.);
#77=FACE_OUTER_BOUND('',#109,.T.);
#78=FACE_OUTER_BOUND('',#111,.T.);
#79=FACE_OUTER_BOUND('',#113,.T.);
#80=FACE_OUTER_BOUND('',#114,.T.);
#81=FACE_OUTER_BOUND('',#115,.T.);
#82=FACE_OUTER_BOUND('',#117,.T.);
#83=FACE_OUTER_BOUND('',#119,.T.);
#84=EDGE_LOOP('',(#174));
#85=EDGE_LOOP('',(#175));
#86=EDGE_LOOP('',(#176));
#87=EDGE_LOOP('',(#177));
#88=EDGE_LOOP('',(#178));
#89=EDGE_LOOP('',(#179));
#90=EDGE_LOOP('',(#180));
#91=EDGE_LOOP('',(#181));
#92=EDGE_LOOP('',(#182));
#93=EDGE_LOOP('',(#183));
#94=EDGE_LOOP('',(#184));
#95=EDGE_LOOP('',(#185));
#96=EDGE_LOOP('',(#186));
#97=EDGE_LOOP('',(#187));
#98=EDGE_LOOP('',(#188));
#99=EDGE_LOOP('',(#189));
#100=EDGE_LOOP('',(#190));
#101=EDGE_LOOP('',(#191));
#102=EDGE_LOOP('',(#192));
#103=EDGE_LOOP('',(#193));
#104=EDGE_LOOP('',(#194));
#105=EDGE_LOOP('',(#195));
#106=EDGE_LOOP('',(#196));
#107=EDGE_LOOP('',(#197));
#108=EDGE_LOOP('',(#198));
#109=EDGE_LOOP('',(#199));
#110=EDGE_LOOP('',(#200));
#111=EDGE_LOOP('',(#201));
#112=EDGE_LOOP('',(#202));
#113=EDGE_LOOP('',(#203));
#114=EDGE_LOOP('',(#204));
#115=EDGE_LOOP('',(#205));
#116=EDGE_LOOP('',(#206));
#117=EDGE_LOOP('',(#207));
#118=EDGE_LOOP('',(#208));
#119=EDGE_LOOP('',(#209));
#120=CIRCLE('',#267,7.50000000000003);
#121=CIRCLE('',#269,5.40000001530313);
#122=CIRCLE('',#271,5.40000001530313);
#123=CIRCLE('',#273,5.29716582833583);
#124=CIRCLE('',#275,7.50000000000003);
#125=CIRCLE('',#279,3.);
#126=CIRCLE('',#281,3.00000000000001);
#127=CIRCLE('',#285,7.5);
#128=CIRCLE('',#287,7.5);
#129=CIRCLE('',#289,5.31729109176781);
#130=CIRCLE('',#291,5.44999892841209);
#131=CIRCLE('',#293,5.44999892841209);
#132=CIRCLE('',#295,2.5);
#133=CIRCLE('',#297,2.5);
#134=CIRCLE('',#299,2.15);
#135=CIRCLE('',#303,2.5);
#136=CIRCLE('',#305,2.5);
#137=CIRCLE('',#307,2.2);
#138=VERTEX_POINT('',#414);
#139=VERTEX_POINT('',#417);
#140=VERTEX_POINT('',#420);
#141=VERTEX_POINT('',#423);
#142=VERTEX_POINT('',#426);
#143=VERTEX_POINT('',#431);
#144=VERTEX_POINT('',#434);
#145=VERTEX_POINT('',#439);
#146=VERTEX_POINT('',#442);
#147=VERTEX_POINT('',#445);
#148=VERTEX_POINT('',#448);
#149=VERTEX_POINT('',#451);
#150=VERTEX_POINT('',#454);
#151=VERTEX_POINT('',#457);
#152=VERTEX_POINT('',#460);
#153=VERTEX_POINT('',#465);
#154=VERTEX_POINT('',#468);
#155=VERTEX_POINT('',#471);
#156=EDGE_CURVE('',#138,#138,#120,.T.);
#157=EDGE_CURVE('',#139,#139,#121,.T.);
#158=EDGE_CURVE('',#140,#140,#122,.T.);
#159=EDGE_CURVE('',#141,#141,#123,.T.);
#160=EDGE_CURVE('',#142,#142,#124,.T.);
#161=EDGE_CURVE('',#143,#143,#125,.T.);
#162=EDGE_CURVE('',#144,#144,#126,.T.);
#163=EDGE_CURVE('',#145,#145,#127,.T.);
#164=EDGE_CURVE('',#146,#146,#128,.T.);
#165=EDGE_CURVE('',#147,#147,#129,.T.);
#166=EDGE_CURVE('',#148,#148,#130,.T.);
#167=EDGE_CURVE('',#149,#149,#131,.T.);
#168=EDGE_CURVE('',#150,#150,#132,.T.);
#169=EDGE_CURVE('',#151,#151,#133,.T.);
#170=EDGE_CURVE('',#152,#152,#134,.T.);
#171=EDGE_CURVE('',#153,#153,#135,.T.);
#172=EDGE_CURVE('',#154,#154,#136,.T.);
#173=EDGE_CURVE('',#155,#155,#137,.T.);
#174=ORIENTED_EDGE('',*,*,#156,.T.);
#175=ORIENTED_EDGE('',*,*,#157,.F.);
#176=ORIENTED_EDGE('',*,*,#158,.F.);
#177=ORIENTED_EDGE('',*,*,#157,.T.);
#178=ORIENTED_EDGE('',*,*,#159,.F.);
#179=ORIENTED_EDGE('',*,*,#158,.T.);
#180=ORIENTED_EDGE('',*,*,#160,.F.);
#181=ORIENTED_EDGE('',*,*,#159,.T.);
#182=ORIENTED_EDGE('',*,*,#156,.F.);
#183=ORIENTED_EDGE('',*,*,#160,.T.);
#184=ORIENTED_EDGE('',*,*,#161,.F.);
#185=ORIENTED_EDGE('',*,*,#162,.F.);
#186=ORIENTED_EDGE('',*,*,#161,.T.);
#187=ORIENTED_EDGE('',*,*,#162,.T.);
#188=ORIENTED_EDGE('',*,*,#163,.F.);
#189=ORIENTED_EDGE('',*,*,#164,.F.);
#190=ORIENTED_EDGE('',*,*,#163,.T.);
#191=ORIENTED_EDGE('',*,*,#165,.F.);
#192=ORIENTED_EDGE('',*,*,#164,.T.);
#193=ORIENTED_EDGE('',*,*,#166,.F.);
#194=ORIENTED_EDGE('',*,*,#165,.T.);
#195=ORIENTED_EDGE('',*,*,#167,.F.);
#196=ORIENTED_EDGE('',*,*,#166,.T.);
#197=ORIENTED_EDGE('',*,*,#168,.F.);
#198=ORIENTED_EDGE('',*,*,#167,.T.);
#199=ORIENTED_EDGE('',*,*,#169,.F.);
#200=ORIENTED_EDGE('',*,*,#168,.T.);
#201=ORIENTED_EDGE('',*,*,#170,.F.);
#202=ORIENTED_EDGE('',*,*,#169,.T.);
#203=ORIENTED_EDGE('',*,*,#170,.T.);
#204=ORIENTED_EDGE('',*,*,#171,.F.);
#205=ORIENTED_EDGE('',*,*,#172,.F.);
#206=ORIENTED_EDGE('',*,*,#171,.T.);
#207=ORIENTED_EDGE('',*,*,#173,.F.);
#208=ORIENTED_EDGE('',*,*,#172,.T.);
#209=ORIENTED_EDGE('',*,*,#173,.T.);
#210=PLANE('',#266);
#211=PLANE('',#268);
#212=PLANE('',#278);
#213=PLANE('',#282);
#214=PLANE('',#284);
#215=PLANE('',#294);
#216=PLANE('',#300);
#217=PLANE('',#302);
#218=PLANE('',#308);
#219=STYLED_ITEM('',(#541),#235);
#220=STYLED_ITEM('',(#542),#236);
#221=STYLED_ITEM('',(#542),#237);
#222=STYLED_ITEM('',(#542),#238);
#223=STYLED_ITEM('',(#543),#239);
#224=STYLED_ITEM('',(#543),#240);
#225=STYLED_ITEM('',(#540),#261);
#226=STYLED_ITEM('',(#543),#262);
#227=STYLED_ITEM('',(#542),#247);
#228=STYLED_ITEM('',(#542),#248);
#229=STYLED_ITEM('',(#542),#249);
#230=STYLED_ITEM('',(#542),#250);
#231=STYLED_ITEM('',(#542),#251);
#232=STYLED_ITEM('',(#542),#252);
#233=STYLED_ITEM('',(#543),#263);
#234=STYLED_ITEM('',(#544),#264);
#235=ADVANCED_FACE('',(#63),#210,.T.);
#236=ADVANCED_FACE('',(#64),#211,.T.);
#237=ADVANCED_FACE('',(#65,#41),#56,.T.);
#238=ADVANCED_FACE('',(#66,#42),#37,.T.);
#239=ADVANCED_FACE('',(#67,#43),#35,.T.);
#240=ADVANCED_FACE('',(#68,#44),#57,.T.);
#241=ADVANCED_FACE('',(#69),#212,.T.);
#242=ADVANCED_FACE('',(#70,#45),#58,.T.);
#243=ADVANCED_FACE('',(#71),#213,.T.);
#244=ADVANCED_FACE('',(#72),#214,.T.);
#245=ADVANCED_FACE('',(#73,#46),#59,.T.);
#246=ADVANCED_FACE('',(#74,#47),#36,.T.);
#247=ADVANCED_FACE('',(#75,#48),#38,.T.);
#248=ADVANCED_FACE('',(#76,#49),#60,.T.);
#249=ADVANCED_FACE('',(#50,#51),#215,.T.);
#250=ADVANCED_FACE('',(#77,#52),#61,.T.);
#251=ADVANCED_FACE('',(#78,#53),#39,.T.);
#252=ADVANCED_FACE('',(#79),#216,.T.);
#253=ADVANCED_FACE('',(#80),#217,.T.);
#254=ADVANCED_FACE('',(#81,#54),#62,.T.);
#255=ADVANCED_FACE('',(#82,#55),#40,.T.);
#256=ADVANCED_FACE('',(#83),#218,.T.);
#257=CLOSED_SHELL('',(#235,#236,#237,#238,#239,#240));
#258=CLOSED_SHELL('',(#241,#242,#243));
#259=CLOSED_SHELL('',(#244,#245,#246,#247,#248,#249,#250,#251,#252));
#260=CLOSED_SHELL('',(#253,#254,#255,#256));
#261=MANIFOLD_SOLID_BREP('Volumenk\X\F6rper1',#257);
#262=MANIFOLD_SOLID_BREP('Volumenk\X\F6rper2',#258);
#263=MANIFOLD_SOLID_BREP('Volumenk\X\F6rper1',#259);
#264=MANIFOLD_SOLID_BREP('Volumenk\X\F6rper2',#260);
#265=AXIS2_PLACEMENT_3D('placement',#412,#314,#315);
#266=AXIS2_PLACEMENT_3D('',#413,#316,#317);
#267=AXIS2_PLACEMENT_3D('',#415,#318,#319);
#268=AXIS2_PLACEMENT_3D('',#416,#320,#321);
#269=AXIS2_PLACEMENT_3D('',#418,#322,#323);
#270=AXIS2_PLACEMENT_3D('',#419,#324,#325);
#271=AXIS2_PLACEMENT_3D('',#421,#326,#327);
#272=AXIS2_PLACEMENT_3D('',#422,#328,#329);
#273=AXIS2_PLACEMENT_3D('',#424,#330,#331);
#274=AXIS2_PLACEMENT_3D('',#425,#332,#333);
#275=AXIS2_PLACEMENT_3D('',#427,#334,#335);
#276=AXIS2_PLACEMENT_3D('',#428,#336,#337);
#277=AXIS2_PLACEMENT_3D('placement',#429,#338,#339);
#278=AXIS2_PLACEMENT_3D('',#430,#340,#341);
#279=AXIS2_PLACEMENT_3D('',#432,#342,#343);
#280=AXIS2_PLACEMENT_3D('',#433,#344,#345);
#281=AXIS2_PLACEMENT_3D('',#435,#346,#347);
#282=AXIS2_PLACEMENT_3D('',#436,#348,#349);
#283=AXIS2_PLACEMENT_3D('placement',#437,#350,#351);
#284=AXIS2_PLACEMENT_3D('',#438,#352,#353);
#285=AXIS2_PLACEMENT_3D('',#440,#354,#355);
#286=AXIS2_PLACEMENT_3D('',#441,#356,#357);
#287=AXIS2_PLACEMENT_3D('',#443,#358,#359);
#288=AXIS2_PLACEMENT_3D('',#444,#360,#361);
#289=AXIS2_PLACEMENT_3D('',#446,#362,#363);
#290=AXIS2_PLACEMENT_3D('',#447,#364,#365);
#291=AXIS2_PLACEMENT_3D('',#449,#366,#367);
#292=AXIS2_PLACEMENT_3D('',#450,#368,#369);
#293=AXIS2_PLACEMENT_3D('',#452,#370,#371);
#294=AXIS2_PLACEMENT_3D('',#453,#372,#373);
#295=AXIS2_PLACEMENT_3D('',#455,#374,#375);
#296=AXIS2_PLACEMENT_3D('',#456,#376,#377);
#297=AXIS2_PLACEMENT_3D('',#458,#378,#379);
#298=AXIS2_PLACEMENT_3D('',#459,#380,#381);
#299=AXIS2_PLACEMENT_3D('',#461,#382,#383);
#300=AXIS2_PLACEMENT_3D('',#462,#384,#385);
#301=AXIS2_PLACEMENT_3D('placement',#463,#386,#387);
#302=AXIS2_PLACEMENT_3D('',#464,#388,#389);
#303=AXIS2_PLACEMENT_3D('',#466,#390,#391);
#304=AXIS2_PLACEMENT_3D('',#467,#392,#393);
#305=AXIS2_PLACEMENT_3D('',#469,#394,#395);
#306=AXIS2_PLACEMENT_3D('',#470,#396,#397);
#307=AXIS2_PLACEMENT_3D('',#472,#398,#399);
#308=AXIS2_PLACEMENT_3D('',#473,#400,#401);
#309=AXIS2_PLACEMENT_3D('placement',#474,#402,#403);
#310=AXIS2_PLACEMENT_3D('',#475,#404,#405);
#311=AXIS2_PLACEMENT_3D('',#476,#406,#407);
#312=AXIS2_PLACEMENT_3D('',#477,#408,#409);
#313=AXIS2_PLACEMENT_3D('',#478,#410,#411);
#314=DIRECTION('axis',(0.,0.,1.));
#315=DIRECTION('refdir',(1.,0.,0.));
#316=DIRECTION('center_axis',(1.,0.,0.));
#317=DIRECTION('ref_axis',(0.,0.,-1.));
#318=DIRECTION('center_axis',(1.,0.,0.));
#319=DIRECTION('ref_axis',(0.,1.,0.));
#320=DIRECTION('center_axis',(-1.,0.,0.));
#321=DIRECTION('ref_axis',(0.,0.,1.));
#322=DIRECTION('center_axis',(1.,0.,0.));
#323=DIRECTION('ref_axis',(0.,1.,0.));
#324=DIRECTION('center_axis',(1.,0.,0.));
#325=DIRECTION('ref_axis',(0.,1.,0.));
#326=DIRECTION('center_axis',(1.,0.,0.));
#327=DIRECTION('ref_axis',(0.,1.,0.));
#328=DIRECTION('center_axis',(-1.,0.,0.));
#329=DIRECTION('ref_axis',(0.,1.,0.));
#330=DIRECTION('center_axis',(1.,0.,0.));
#331=DIRECTION('ref_axis',(0.,1.,0.));
#332=DIRECTION('center_axis',(1.,0.,0.));
#333=DIRECTION('ref_axis',(0.,0.,-1.));
#334=DIRECTION('center_axis',(1.,0.,0.));
#335=DIRECTION('ref_axis',(0.,1.,0.));
#336=DIRECTION('center_axis',(1.,0.,0.));
#337=DIRECTION('ref_axis',(0.,1.,0.));
#338=DIRECTION('axis',(0.,0.,1.));
#339=DIRECTION('refdir',(1.,0.,0.));
#340=DIRECTION('center_axis',(-1.,0.,0.));
#341=DIRECTION('ref_axis',(0.,0.,1.));
#342=DIRECTION('center_axis',(1.,0.,0.));
#343=DIRECTION('ref_axis',(0.,1.,0.));
#344=DIRECTION('center_axis',(1.,0.,0.));
#345=DIRECTION('ref_axis',(0.,1.,0.));
#346=DIRECTION('center_axis',(1.,0.,0.));
#347=DIRECTION('ref_axis',(0.,1.,0.));
#348=DIRECTION('center_axis',(1.,0.,0.));
#349=DIRECTION('ref_axis',(0.,0.,-1.));
#350=DIRECTION('axis',(0.,0.,1.));
#351=DIRECTION('refdir',(1.,0.,0.));
#352=DIRECTION('center_axis',(-1.,0.,0.));
#353=DIRECTION('ref_axis',(0.,0.,1.));
#354=DIRECTION('center_axis',(1.,0.,0.));
#355=DIRECTION('ref_axis',(0.,1.,0.));
#356=DIRECTION('center_axis',(1.,0.,0.));
#357=DIRECTION('ref_axis',(0.,1.,0.));
#358=DIRECTION('center_axis',(1.,0.,0.));
#359=DIRECTION('ref_axis',(0.,1.,0.));
#360=DIRECTION('center_axis',(1.,0.,0.));
#361=DIRECTION('ref_axis',(0.,0.,-1.));
#362=DIRECTION('center_axis',(1.,0.,0.));
#363=DIRECTION('ref_axis',(0.,1.,0.));
#364=DIRECTION('center_axis',(1.,0.,0.));
#365=DIRECTION('ref_axis',(0.,1.,0.));
#366=DIRECTION('center_axis',(1.,0.,0.));
#367=DIRECTION('ref_axis',(0.,1.,0.));
#368=DIRECTION('center_axis',(1.,0.,0.));
#369=DIRECTION('ref_axis',(0.,1.,0.));
#370=DIRECTION('center_axis',(1.,0.,0.));
#371=DIRECTION('ref_axis',(0.,1.,0.));
#372=DIRECTION('center_axis',(1.,0.,0.));
#373=DIRECTION('ref_axis',(0.,0.,-1.));
#374=DIRECTION('center_axis',(1.,0.,0.));
#375=DIRECTION('ref_axis',(0.,1.,0.));
#376=DIRECTION('center_axis',(1.,0.,0.));
#377=DIRECTION('ref_axis',(0.,1.,0.));
#378=DIRECTION('center_axis',(1.,0.,0.));
#379=DIRECTION('ref_axis',(0.,1.,0.));
#380=DIRECTION('center_axis',(-1.,0.,0.));
#381=DIRECTION('ref_axis',(0.,1.,0.));
#382=DIRECTION('center_axis',(1.,0.,0.));
#383=DIRECTION('ref_axis',(0.,1.,0.));
#384=DIRECTION('center_axis',(1.,0.,0.));
#385=DIRECTION('ref_axis',(0.,0.,-1.));
#386=DIRECTION('axis',(0.,0.,1.));
#387=DIRECTION('refdir',(1.,0.,0.));
#388=DIRECTION('center_axis',(1.,0.,0.));
#389=DIRECTION('ref_axis',(0.,0.,-1.));
#390=DIRECTION('center_axis',(-1.,0.,0.));
#391=DIRECTION('ref_axis',(0.,-1.,0.));
#392=DIRECTION('center_axis',(-1.,0.,0.));
#393=DIRECTION('ref_axis',(0.,-1.,0.));
#394=DIRECTION('center_axis',(-1.,0.,0.));
#395=DIRECTION('ref_axis',(0.,-1.,0.));
#396=DIRECTION('center_axis',(1.,0.,0.));
#397=DIRECTION('ref_axis',(0.,-1.,0.));
#398=DIRECTION('center_axis',(-1.,0.,0.));
#399=DIRECTION('ref_axis',(0.,-1.,0.));
#400=DIRECTION('center_axis',(-1.,0.,0.));
#401=DIRECTION('ref_axis',(0.,0.,1.));
#402=DIRECTION('axis',(0.,0.,1.));
#403=DIRECTION('refdir',(1.,0.,0.));
#404=DIRECTION('',(0.,0.,1.));
#405=DIRECTION('',(1.,0.,0.));
#406=DIRECTION('',(0.,-0.973377646796699,0.229207235305782));
#407=DIRECTION('',(1.,0.,0.));
#408=DIRECTION('',(0.,-0.362464884583574,-0.931997428882621));
#409=DIRECTION('',(1.,0.,0.));
#410=DIRECTION('',(1.10541333210742E-015,-0.543500589622949,0.839408785443366));
#411=DIRECTION('',(1.,-1.60982338570647E-015,-2.35922392732845E-015));
#412=CARTESIAN_POINT('',(0.,0.,0.));
#413=CARTESIAN_POINT('Origin',(142.5,3.75000000000002,0.));
#414=CARTESIAN_POINT('',(142.5,7.50000000000003,0.));
#415=CARTESIAN_POINT('Origin',(142.5,0.,0.));
#416=CARTESIAN_POINT('Origin',(-1.73472347597681E-016,2.70000000765156,
0.));
#417=CARTESIAN_POINT('',(-3.46944695195361E-016,5.40000001530313,0.));
#418=CARTESIAN_POINT('Origin',(0.,0.,0.));
#419=CARTESIAN_POINT('Origin',(0.217429201619712,0.,0.));
#420=CARTESIAN_POINT('',(0.434858403239422,5.40000001530313,0.));
#421=CARTESIAN_POINT('Origin',(0.434858403239424,0.,0.));
#422=CARTESIAN_POINT('Origin',(0.448635571915528,0.,0.));
#423=CARTESIAN_POINT('',(0.462412740591622,5.29716582833583,0.));
#424=CARTESIAN_POINT('Origin',(0.462412740591613,0.,0.));
#425=CARTESIAN_POINT('Origin',(3.3999059859406,0.,0.));
#426=CARTESIAN_POINT('',(3.3999059859406,7.50000000000003,0.));
#427=CARTESIAN_POINT('Origin',(3.3999059859406,0.,0.));
#428=CARTESIAN_POINT('Origin',(72.9499529929703,0.,0.));
#429=CARTESIAN_POINT('',(0.,0.,0.));
#430=CARTESIAN_POINT('Origin',(-1.38777878078145E-016,1.5,0.));
#431=CARTESIAN_POINT('',(-5.55111512312578E-016,3.,0.));
#432=CARTESIAN_POINT('Origin',(0.,0.,0.));
#433=CARTESIAN_POINT('Origin',(60.,0.,0.));
#434=CARTESIAN_POINT('',(120.,3.00000000000001,0.));
#435=CARTESIAN_POINT('Origin',(120.,0.,0.));
#436=CARTESIAN_POINT('Origin',(120.,1.50000000000001,0.));
#437=CARTESIAN_POINT('',(0.,0.,0.));
#438=CARTESIAN_POINT('Origin',(7.71951946809679E-015,3.75,0.));
#439=CARTESIAN_POINT('',(1.54390389361936E-014,7.5,0.));
#440=CARTESIAN_POINT('Origin',(1.55431223447522E-014,0.,0.));
#441=CARTESIAN_POINT('Origin',(0.250000000000008,0.,0.));
#442=CARTESIAN_POINT('',(0.5,7.5,0.));
#443=CARTESIAN_POINT('Origin',(0.499999999999999,0.,0.));
#444=CARTESIAN_POINT('Origin',(0.502501326185908,0.,0.));
#445=CARTESIAN_POINT('',(3.46367996049735,5.31729109176781,0.));
#446=CARTESIAN_POINT('Origin',(3.46367996049735,0.,0.));
#447=CARTESIAN_POINT('Origin',(3.48183998024868,0.,0.));
#448=CARTESIAN_POINT('',(3.5,5.44999892841209,0.));
#449=CARTESIAN_POINT('Origin',(3.5,0.,0.));
#450=CARTESIAN_POINT('Origin',(4.,0.,0.));
#451=CARTESIAN_POINT('',(4.5,5.44999892841209,0.));
#452=CARTESIAN_POINT('Origin',(4.5,0.,0.));
#453=CARTESIAN_POINT('Origin',(4.5,3.97499946420604,0.));
#454=CARTESIAN_POINT('',(4.5,2.5,0.));
#455=CARTESIAN_POINT('Origin',(4.5,0.,0.));
#456=CARTESIAN_POINT('Origin',(6.825,0.,0.));
#457=CARTESIAN_POINT('',(9.15000000000001,2.5,0.));
#458=CARTESIAN_POINT('Origin',(9.15000000000001,0.,0.));
#459=CARTESIAN_POINT('Origin',(9.325,0.,0.));
#460=CARTESIAN_POINT('',(9.5,2.15,0.));
#461=CARTESIAN_POINT('Origin',(9.5,0.,0.));
#462=CARTESIAN_POINT('Origin',(9.5,1.075,0.));
#463=CARTESIAN_POINT('',(0.,0.,0.));
#464=CARTESIAN_POINT('Origin',(5.35782974626967E-016,-1.25,0.));
#465=CARTESIAN_POINT('',(1.07156594925393E-015,-2.5,0.));
#466=CARTESIAN_POINT('Origin',(1.11022302462516E-015,0.,0.));
#467=CARTESIAN_POINT('Origin',(-2.35,0.,0.));
#468=CARTESIAN_POINT('',(-4.7,-2.5,0.));
#469=CARTESIAN_POINT('Origin',(-4.7,0.,0.));
#470=CARTESIAN_POINT('Origin',(-4.85,0.,0.));
#471=CARTESIAN_POINT('',(-5.,-2.2,0.));
#472=CARTESIAN_POINT('Origin',(-5.,0.,0.));
#473=CARTESIAN_POINT('Origin',(-5.,-1.1,0.));
#474=CARTESIAN_POINT('',(0.,0.,0.));
#475=CARTESIAN_POINT('',(0.,0.,0.));
#476=CARTESIAN_POINT('',(-120.,0.,0.));
#477=CARTESIAN_POINT('',(142.5,0.,0.));
#478=CARTESIAN_POINT('',(-120.,1.94289029309402E-014,-2.96984659087229E-014));
#479=UNCERTAINTY_MEASURE_WITH_UNIT(LENGTH_MEASURE(0.01),#491,
'DISTANCE_ACCURACY_VALUE',
'Maximum model space distance between geometric entities at asserted c
onnectivities');
#480=UNCERTAINTY_MEASURE_WITH_UNIT(LENGTH_MEASURE(0.01),#491,
'DISTANCE_ACCURACY_VALUE',
'Maximum model space distance between geometric entities at asserted c
onnectivities');
#481=UNCERTAINTY_MEASURE_WITH_UNIT(LENGTH_MEASURE(0.01),#491,
'DISTANCE_ACCURACY_VALUE',
'Maximum model space distance between geometric entities at asserted c
onnectivities');
#482=UNCERTAINTY_MEASURE_WITH_UNIT(LENGTH_MEASURE(0.01),#491,
'DISTANCE_ACCURACY_VALUE',
'Maximum model space distance between geometric entities at asserted c
onnectivities');
#483=UNCERTAINTY_MEASURE_WITH_UNIT(LENGTH_MEASURE(0.01),#491,
'DISTANCE_ACCURACY_VALUE',
'Maximum model space distance between geometric entities at asserted c
onnectivities');
#484=UNCERTAINTY_MEASURE_WITH_UNIT(LENGTH_MEASURE(1.E-006),#491,
'DISTANCE_ACCURACY_VALUE',
'Maximum model space distance between geometric entities at asserted c
onnectivities');
#485=(
GEOMETRIC_REPRESENTATION_CONTEXT(3)
GLOBAL_UNCERTAINTY_ASSIGNED_CONTEXT((#479))
GLOBAL_UNIT_ASSIGNED_CONTEXT((#491,#494,#492))
REPRESENTATION_CONTEXT('','3D')
);
#486=(
GEOMETRIC_REPRESENTATION_CONTEXT(3)
GLOBAL_UNCERTAINTY_ASSIGNED_CONTEXT((#480))
GLOBAL_UNIT_ASSIGNED_CONTEXT((#491,#494,#492))
REPRESENTATION_CONTEXT('','3D')
);
#487=(
GEOMETRIC_REPRESENTATION_CONTEXT(3)
GLOBAL_UNCERTAINTY_ASSIGNED_CONTEXT((#481))
GLOBAL_UNIT_ASSIGNED_CONTEXT((#491,#494,#492))
REPRESENTATION_CONTEXT('','3D')
);
#488=(
GEOMETRIC_REPRESENTATION_CONTEXT(3)
GLOBAL_UNCERTAINTY_ASSIGNED_CONTEXT((#482))
GLOBAL_UNIT_ASSIGNED_CONTEXT((#491,#494,#492))
REPRESENTATION_CONTEXT('','3D')
);
#489=(
GEOMETRIC_REPRESENTATION_CONTEXT(3)
GLOBAL_UNCERTAINTY_ASSIGNED_CONTEXT((#483))
GLOBAL_UNIT_ASSIGNED_CONTEXT((#491,#494,#492))
REPRESENTATION_CONTEXT('','3D')
);
#490=(
GEOMETRIC_REPRESENTATION_CONTEXT(3)
GLOBAL_UNCERTAINTY_ASSIGNED_CONTEXT((#484))
GLOBAL_UNIT_ASSIGNED_CONTEXT((#491,#494,#492))
REPRESENTATION_CONTEXT('','3D')
);
#491=(
LENGTH_UNIT()
NAMED_UNIT(*)
SI_UNIT(.MILLI.,.METRE.)
);
#492=(
NAMED_UNIT(*)
SI_UNIT($,.STERADIAN.)
SOLID_ANGLE_UNIT()
);
#493=DIMENSIONAL_EXPONENTS(0.,0.,0.,0.,0.,0.,0.);
#494=(
CONVERSION_BASED_UNIT('degree',#496)
NAMED_UNIT(#493)
PLANE_ANGLE_UNIT()
);
#495=(
NAMED_UNIT(*)
PLANE_ANGLE_UNIT()
SI_UNIT($,.RADIAN.)
);
#496=PLANE_ANGLE_MEASURE_WITH_UNIT(PLANE_ANGLE_MEASURE(0.01745329252),#495);
#497=SHAPE_DEFINITION_REPRESENTATION(#502,#511);
#498=SHAPE_DEFINITION_REPRESENTATION(#503,#512);
#499=SHAPE_DEFINITION_REPRESENTATION(#504,#513);
#500=SHAPE_DEFINITION_REPRESENTATION(#505,#514);
#501=SHAPE_DEFINITION_REPRESENTATION(#506,#515);
#502=PRODUCT_DEFINITION_SHAPE('',$,#517);
#503=PRODUCT_DEFINITION_SHAPE('',$,#518);
#504=PRODUCT_DEFINITION_SHAPE('',$,#519);
#505=PRODUCT_DEFINITION_SHAPE('',$,#520);
#506=PRODUCT_DEFINITION_SHAPE('',$,#521);
#507=PRODUCT_DEFINITION_SHAPE($,$,#23);
#508=PRODUCT_DEFINITION_SHAPE($,$,#24);
#509=PRODUCT_DEFINITION_SHAPE($,$,#25);
#510=PRODUCT_DEFINITION_SHAPE($,$,#26);
#511=SHAPE_REPRESENTATION('',(#265),#485);
#512=SHAPE_REPRESENTATION('',(#277),#486);
#513=SHAPE_REPRESENTATION('',(#283),#487);
#514=SHAPE_REPRESENTATION('',(#301),#488);
#515=SHAPE_REPRESENTATION('',(#309,#310,#311,#312,#313),#489);
#516=PRODUCT_DEFINITION_CONTEXT('part definition',#533,'design');
#517=PRODUCT_DEFINITION('Zylinder_15','Zylinder_15',#522,#516);
#518=PRODUCT_DEFINITION('Kolbenstange_06','Kolbenstange_06',#523,#516);
#519=PRODUCT_DEFINITION('Gewindeanschlu\X\DF_V0_15',
'Gewindeanschlu\X\DF_V0_15',#524,#516);
#520=PRODUCT_DEFINITION('Gewindeanschlu\X\DF_V0','Gewindeanschlu\X\DF_
V0',#525,#516);
#521=PRODUCT_DEFINITION('GF-0615-Hub-120-EBL-267',
'GF-0615-Hub-120-EBL-267',#526,#516);
#522=PRODUCT_DEFINITION_FORMATION('',$,#535);
#523=PRODUCT_DEFINITION_FORMATION('',$,#536);
#524=PRODUCT_DEFINITION_FORMATION('',$,#537);
#525=PRODUCT_DEFINITION_FORMATION('',$,#538);
#526=PRODUCT_DEFINITION_FORMATION('',$,#539);
#527=PRODUCT_RELATED_PRODUCT_CATEGORY('Zylinder_15','Zylinder_15',(#535));
#528=PRODUCT_RELATED_PRODUCT_CATEGORY('Kolbenstange_06',
'Kolbenstange_06',(#536));
#529=PRODUCT_RELATED_PRODUCT_CATEGORY('Gewindeanschlu\X\DF_V0_15',
'Gewindeanschlu\X\DF_V0_15',(#537));
#530=PRODUCT_RELATED_PRODUCT_CATEGORY('Gewindeanschlu\X\DF_V0',
'Gewindeanschlu\X\DF_V0',(#538));
#531=PRODUCT_RELATED_PRODUCT_CATEGORY('GF-0615-Hub-120-EBL-267',
'GF-0615-Hub-120-EBL-267',(#539));
#532=APPLICATION_PROTOCOL_DEFINITION('international standard',
'automotive_design',2009,#533);
#533=APPLICATION_CONTEXT(
'Core Data for Automotive Mechanical Design Process');
#534=PRODUCT_CONTEXT('part definition',#533,'mechanical');
#535=PRODUCT('Zylinder_15','Zylinder_15',$,(#534));
#536=PRODUCT('Kolbenstange_06','Kolbenstange_06',$,(#534));
#537=PRODUCT('Gewindeanschlu\X\DF_V0_15','Gewindeanschlu\X\DF_V0_15',$,
(#534));
#538=PRODUCT('Gewindeanschlu\X\DF_V0','Gewindeanschlu\X\DF_V0',$,(#534));
#539=PRODUCT('GF-0615-Hub-120-EBL-267','GF-0615-Hub-120-EBL-267',$,(#534));
#540=PRESENTATION_STYLE_ASSIGNMENT((#545));
#541=PRESENTATION_STYLE_ASSIGNMENT((#546));
#542=PRESENTATION_STYLE_ASSIGNMENT((#547));
#543=PRESENTATION_STYLE_ASSIGNMENT((#548));
#544=PRESENTATION_STYLE_ASSIGNMENT((#549));
#545=SURFACE_STYLE_USAGE(.BOTH.,#550);
#546=SURFACE_STYLE_USAGE(.BOTH.,#551);
#547=SURFACE_STYLE_USAGE(.BOTH.,#552);
#548=SURFACE_STYLE_USAGE(.BOTH.,#553);
#549=SURFACE_STYLE_USAGE(.BOTH.,#554);
#550=SURFACE_SIDE_STYLE($,(#555));
#551=SURFACE_SIDE_STYLE($,(#556));
#552=SURFACE_SIDE_STYLE($,(#557));
#553=SURFACE_SIDE_STYLE($,(#558));
#554=SURFACE_SIDE_STYLE($,(#559));
#555=SURFACE_STYLE_FILL_AREA(#560);
#556=SURFACE_STYLE_FILL_AREA(#561);
#557=SURFACE_STYLE_FILL_AREA(#562);
#558=SURFACE_STYLE_FILL_AREA(#563);
#559=SURFACE_STYLE_FILL_AREA(#564);
#560=FILL_AREA_STYLE($,(#565));
#561=FILL_AREA_STYLE($,(#566));
#562=FILL_AREA_STYLE($,(#567));
#563=FILL_AREA_STYLE($,(#568));
#564=FILL_AREA_STYLE($,(#569));
#565=FILL_AREA_STYLE_COLOUR($,#570);
#566=FILL_AREA_STYLE_COLOUR($,#571);
#567=FILL_AREA_STYLE_COLOUR($,#572);
#568=FILL_AREA_STYLE_COLOUR($,#573);
#569=FILL_AREA_STYLE_COLOUR($,#574);
#570=COLOUR_RGB('',0.752941176470588,0.752941176470588,0.752941176470588);
#571=COLOUR_RGB('',1.,1.,1.);
#572=COLOUR_RGB('',0.949019607843137,0.925490196078431,0.933333333333333);
#573=COLOUR_RGB('',0.305882352941176,0.305882352941176,0.305882352941176);
#574=COLOUR_RGB('',0.956862745098039,0.956862745098039,0.956862745098039);
ENDSEC;
END-ISO-10303-21;
