ISO-10303-21;
HEADER;
/****************************************************************
 * Generated by software with PDElib inside                    *
 * PDElib Version v51a, created Wed 07/06/2011                  *
 * ITI Transcendata (http://www.transcendata.com/)              *
 ****************************************************************/
FILE_DESCRIPTION((''),'2;1');
FILE_NAME('Z:\\3D-Zeichnungen\\Zusammenbau-Zeichnungen\\Kundenzeichnungen\\Gasdruckfeder\\Quick Ship\\3070\\Step-Dateien\\QS-70-400.stp','2012-07-12T13:46:24',('CADNEU'),(''),'Autodesk Inventor 2012','Autodesk Inventor 2012','');
FILE_SCHEMA(('AUTOMOTIVE_DESIGN { 1 0 10303 214 1 1 1 1 }'));
ENDSEC;
DATA;
#5=APPLICATION_CONTEXT('automotive design');
#6=APPLICATION_PROTOCOL_DEFINITION('International Standard','automotive_design',2001,#5);
#7=PRODUCT_CONTEXT('',#5,'mechanical');
#8=PRODUCT('QS-70-400','QS-70-400',$,(#7));
#9=PRODUCT_RELATED_PRODUCT_CATEGORY('part',$,(#8));
#10=PRODUCT_DEFINITION_FORMATION('',$,#8);
#11=PRODUCT_DEFINITION_CONTEXT('part definition',#5,'design');
#12=PRODUCT_DEFINITION('',$,#10,#11);
#18=(NAMED_UNIT(*)PLANE_ANGLE_UNIT()SI_UNIT($,.RADIAN.));
#19=DIMENSIONAL_EXPONENTS(0.0,0.0,0.0,0.0,0.0,0.0,0.0);
#20=PLANE_ANGLE_MEASURE_WITH_UNIT(PLANE_ANGLE_MEASURE(0.0174532925),#18);
#24=(CONVERSION_BASED_UNIT('DEGREE',#20)NAMED_UNIT(#19)PLANE_ANGLE_UNIT());
#28=(NAMED_UNIT(*)SI_UNIT($,.STERADIAN.)SOLID_ANGLE_UNIT());
#32=(LENGTH_UNIT()NAMED_UNIT(*)SI_UNIT(.MILLI.,.METRE.));
#34=UNCERTAINTY_MEASURE_WITH_UNIT(LENGTH_MEASURE(0.01),#32,'DISTANCE_ACCURACY_VALUE','');
#36=(GEOMETRIC_REPRESENTATION_CONTEXT(3)GLOBAL_UNCERTAINTY_ASSIGNED_CONTEXT((#34))GLOBAL_UNIT_ASSIGNED_CONTEXT((#24,#28,#32))REPRESENTATION_CONTEXT('None','None'));
#37=AXIS2_PLACEMENT_3D('',#38,#39,#40);
#38=CARTESIAN_POINT('',(0.0,0.0,0.0));
#39=DIRECTION('',(0.0,0.0,1.0));
#40=DIRECTION('',(1.0,0.0,0.0));
#41=SHAPE_REPRESENTATION('',(#37,#186,#312,#528,#685),#36);
#42=PRODUCT_DEFINITION_SHAPE('','',#12);
#43=SHAPE_DEFINITION_REPRESENTATION(#42,#41);
#44=APPLICATION_CONTEXT('automotive design');
#45=APPLICATION_PROTOCOL_DEFINITION('International Standard','automotive_design',2001,#44);
#46=PRODUCT_CONTEXT('',#44,'mechanical');
#47=PRODUCT('Zylinder_70','Zylinder_70',$,(#46));
#48=PRODUCT_RELATED_PRODUCT_CATEGORY('part',$,(#47));
#49=PRODUCT_DEFINITION_FORMATION('',$,#47);
#50=PRODUCT_DEFINITION_CONTEXT('part definition',#44,'design');
#51=PRODUCT_DEFINITION('',$,#49,#50);
#57=(NAMED_UNIT(*)PLANE_ANGLE_UNIT()SI_UNIT($,.RADIAN.));
#58=DIMENSIONAL_EXPONENTS(0.0,0.0,0.0,0.0,0.0,0.0,0.0);
#59=PLANE_ANGLE_MEASURE_WITH_UNIT(PLANE_ANGLE_MEASURE(0.0174532925),#57);
#63=(CONVERSION_BASED_UNIT('DEGREE',#59)NAMED_UNIT(#58)PLANE_ANGLE_UNIT());
#67=(NAMED_UNIT(*)SI_UNIT($,.STERADIAN.)SOLID_ANGLE_UNIT());
#71=(LENGTH_UNIT()NAMED_UNIT(*)SI_UNIT(.MILLI.,.METRE.));
#73=UNCERTAINTY_MEASURE_WITH_UNIT(LENGTH_MEASURE(0.01),#71,'DISTANCE_ACCURACY_VALUE','');
#75=(GEOMETRIC_REPRESENTATION_CONTEXT(3)GLOBAL_UNCERTAINTY_ASSIGNED_CONTEXT((#73))GLOBAL_UNIT_ASSIGNED_CONTEXT((#63,#67,#71))REPRESENTATION_CONTEXT('None','None'));
#76=AXIS2_PLACEMENT_3D('',#77,#78,#79);
#77=CARTESIAN_POINT('',(0.0,0.0,0.0));
#78=DIRECTION('',(0.0,0.0,1.0));
#79=DIRECTION('',(1.0,0.0,0.0));
#80=SHAPE_REPRESENTATION('',(#76),#75);
#81=PRODUCT_DEFINITION_SHAPE('','',#51);
#82=SHAPE_DEFINITION_REPRESENTATION(#81,#80);
#88=(NAMED_UNIT(*)PLANE_ANGLE_UNIT()SI_UNIT($,.RADIAN.));
#89=DIMENSIONAL_EXPONENTS(0.0,0.0,0.0,0.0,0.0,0.0,0.0);
#90=PLANE_ANGLE_MEASURE_WITH_UNIT(PLANE_ANGLE_MEASURE(0.0174532925),#88);
#94=(CONVERSION_BASED_UNIT('DEGREE',#90)NAMED_UNIT(#89)PLANE_ANGLE_UNIT());
#98=(NAMED_UNIT(*)SI_UNIT($,.STERADIAN.)SOLID_ANGLE_UNIT());
#102=(LENGTH_UNIT()NAMED_UNIT(*)SI_UNIT(.MILLI.,.METRE.));
#104=UNCERTAINTY_MEASURE_WITH_UNIT(LENGTH_MEASURE(0.000001),#102,'DISTANCE_ACCURACY_VALUE','');
#106=(GEOMETRIC_REPRESENTATION_CONTEXT(3)GLOBAL_UNCERTAINTY_ASSIGNED_CONTEXT((#104))GLOBAL_UNIT_ASSIGNED_CONTEXT((#94,#98,#102))REPRESENTATION_CONTEXT('','3D'));
#107=CARTESIAN_POINT('',(-39.143136771335442,-13.074238102310066,0.0));
#108=DIRECTION('',(1.0,-1.011606E-016,0.0));
#109=DIRECTION('',(0.0,0.0,-1.0));
#110=AXIS2_PLACEMENT_3D('',#107,#108,#109);
#111=TOROIDAL_SURFACE('',#110,31.500000000000004,3.5);
#112=CARTESIAN_POINT('',(-39.143136771335435,21.925761897689938,0.0));
#113=VERTEX_POINT('',#112);
#114=CARTESIAN_POINT('',(-39.143136771335442,-13.074238102310062,0.0));
#115=DIRECTION('',(1.0,0.0,0.0));
#116=DIRECTION('',(0.0,1.0,0.0));
#117=AXIS2_PLACEMENT_3D('',#114,#115,#116);
#118=CIRCLE('',#117,35.0);
#119=EDGE_CURVE('',#113,#113,#118,.T.);
#120=ORIENTED_EDGE('',*,*,#119,.F.);
#121=EDGE_LOOP('',(#120));
#122=FACE_OUTER_BOUND('',#121,.T.);
#123=CARTESIAN_POINT('',(-42.643136771335435,18.425761897689938,0.0));
#124=VERTEX_POINT('',#123);
#125=CARTESIAN_POINT('',(-42.643136771335435,-13.074238102310062,0.0));
#126=DIRECTION('',(1.0,0.0,0.0));
#127=DIRECTION('',(0.0,1.0,0.0));
#128=AXIS2_PLACEMENT_3D('',#125,#126,#127);
#129=CIRCLE('',#128,31.500000000000004);
#130=EDGE_CURVE('',#124,#124,#129,.T.);
#131=ORIENTED_EDGE('',*,*,#130,.T.);
#132=EDGE_LOOP('',(#131));
#133=FACE_BOUND('',#132,.T.);
#134=ADVANCED_FACE('',(#122,#133),#111,.T.);
#135=CARTESIAN_POINT('',(209.10686322866457,-13.074238102310087,0.0));
#136=DIRECTION('',(1.0,-1.011606E-016,0.0));
#137=DIRECTION('',(0.0,1.0,0.0));
#138=AXIS2_PLACEMENT_3D('',#135,#136,#137);
#139=CYLINDRICAL_SURFACE('',#138,35.000000000000043);
#140=CARTESIAN_POINT('',(457.35686322866457,21.925761897689988,0.0));
#141=VERTEX_POINT('',#140);
#142=CARTESIAN_POINT('',(457.35686322866457,-13.074238102310114,0.0));
#143=DIRECTION('',(1.0,0.0,0.0));
#144=DIRECTION('',(0.0,1.0,0.0));
#145=AXIS2_PLACEMENT_3D('',#142,#143,#144);
#146=CIRCLE('',#145,35.000000000000099);
#147=EDGE_CURVE('',#141,#141,#146,.T.);
#148=ORIENTED_EDGE('',*,*,#147,.F.);
#149=EDGE_LOOP('',(#148));
#150=FACE_OUTER_BOUND('',#149,.T.);
#151=ORIENTED_EDGE('',*,*,#119,.T.);
#152=EDGE_LOOP('',(#151));
#153=FACE_BOUND('',#152,.T.);
#154=ADVANCED_FACE('',(#150,#153),#139,.T.);
#155=CARTESIAN_POINT('',(457.35686322866428,4.425761897689936,0.0));
#156=DIRECTION('',(1.0,0.0,0.0));
#157=DIRECTION('',(0.0,0.0,-1.0));
#158=AXIS2_PLACEMENT_3D('',#155,#156,#157);
#159=PLANE('',#158);
#160=ORIENTED_EDGE('',*,*,#147,.T.);
#161=EDGE_LOOP('',(#160));
#162=FACE_OUTER_BOUND('',#161,.T.);
#163=ADVANCED_FACE('',(#162),#159,.T.);
#164=CARTESIAN_POINT('',(-42.643136771335406,2.675761897689938,0.0));
#165=DIRECTION('',(-1.0,0.0,0.0));
#166=DIRECTION('',(0.0,0.0,1.0));
#167=AXIS2_PLACEMENT_3D('',#164,#165,#166);
#168=PLANE('',#167);
#169=ORIENTED_EDGE('',*,*,#130,.F.);
#170=EDGE_LOOP('',(#169));
#171=FACE_OUTER_BOUND('',#170,.T.);
#172=ADVANCED_FACE('',(#171),#168,.T.);
#173=CLOSED_SHELL('',(#134,#154,#163,#172));
#174=MANIFOLD_SOLID_BREP('Volumenk\S\vrper1',#173);
#175=COLOUR_RGB('Gusszinnbronze (neu/glnzend)',0.305882006883621,0.305882006883621,0.305882006883621);
#176=FILL_AREA_STYLE_COLOUR('Gusszinnbronze (neu/glnzend)',#175);
#177=FILL_AREA_STYLE('Gusszinnbronze (neu/glnzend)',(#176));
#178=SURFACE_STYLE_FILL_AREA(#177);
#179=SURFACE_SIDE_STYLE('Gusszinnbronze (neu/glnzend)',(#178));
#180=SURFACE_STYLE_USAGE(.BOTH.,#179);
#181=PRESENTATION_STYLE_ASSIGNMENT((#180));
#182=STYLED_ITEM('',(#181),#174);
#183=MECHANICAL_DESIGN_GEOMETRIC_PRESENTATION_REPRESENTATION('',(#182,#309,#525,#682),#36);
#184=ADVANCED_BREP_SHAPE_REPRESENTATION('ABSR',(#174),#75);
#185=SHAPE_REPRESENTATION_RELATIONSHIP('SRR','None',#184,#80);
#186=AXIS2_PLACEMENT_3D('',#187,#188,#189);
#187=CARTESIAN_POINT('',(0.0,0.0,0.0));
#188=DIRECTION('',(0.0,0.0,1.0));
#189=DIRECTION('',(1.0,0.0,0.0));
#190=NEXT_ASSEMBLY_USAGE_OCCURRENCE('Zylinder_70:1','Zylinder_70:1','Zylinder_70:1',#12,#51,'Zylinder_70:1');
#191=PRODUCT_DEFINITION_SHAPE('Zylinder_70:1','Zylinder_70:1',#190);
#192=ITEM_DEFINED_TRANSFORMATION('Zylinder_70:1','Zylinder_70:1',#76,#186);
#196=(REPRESENTATION_RELATIONSHIP('Zylinder_70:1','Zylinder_70:1',#80,#41)REPRESENTATION_RELATIONSHIP_WITH_TRANSFORMATION(#192)SHAPE_REPRESENTATION_RELATIONSHIP());
#197=CONTEXT_DEPENDENT_SHAPE_REPRESENTATION(#196,#191);
#198=APPLICATION_CONTEXT('automotive design');
#199=APPLICATION_PROTOCOL_DEFINITION('International Standard','automotive_design',2001,#198);
#200=PRODUCT_CONTEXT('',#198,'mechanical');
#201=PRODUCT('Kolbenstange_30','Kolbenstange_30',$,(#200));
#202=PRODUCT_RELATED_PRODUCT_CATEGORY('part',$,(#201));
#203=PRODUCT_DEFINITION_FORMATION('',$,#201);
#204=PRODUCT_DEFINITION_CONTEXT('part definition',#198,'design');
#205=PRODUCT_DEFINITION('',$,#203,#204);
#211=(NAMED_UNIT(*)PLANE_ANGLE_UNIT()SI_UNIT($,.RADIAN.));
#212=DIMENSIONAL_EXPONENTS(0.0,0.0,0.0,0.0,0.0,0.0,0.0);
#213=PLANE_ANGLE_MEASURE_WITH_UNIT(PLANE_ANGLE_MEASURE(0.0174532925),#211);
#217=(CONVERSION_BASED_UNIT('DEGREE',#213)NAMED_UNIT(#212)PLANE_ANGLE_UNIT());
#221=(NAMED_UNIT(*)SI_UNIT($,.STERADIAN.)SOLID_ANGLE_UNIT());
#225=(LENGTH_UNIT()NAMED_UNIT(*)SI_UNIT(.MILLI.,.METRE.));
#227=UNCERTAINTY_MEASURE_WITH_UNIT(LENGTH_MEASURE(0.01),#225,'DISTANCE_ACCURACY_VALUE','');
#229=(GEOMETRIC_REPRESENTATION_CONTEXT(3)GLOBAL_UNCERTAINTY_ASSIGNED_CONTEXT((#227))GLOBAL_UNIT_ASSIGNED_CONTEXT((#217,#221,#225))REPRESENTATION_CONTEXT('None','None'));
#230=AXIS2_PLACEMENT_3D('',#231,#232,#233);
#231=CARTESIAN_POINT('',(0.0,0.0,0.0));
#232=DIRECTION('',(0.0,0.0,1.0));
#233=DIRECTION('',(1.0,0.0,0.0));
#234=SHAPE_REPRESENTATION('',(#230),#229);
#235=PRODUCT_DEFINITION_SHAPE('','',#205);
#236=SHAPE_DEFINITION_REPRESENTATION(#235,#234);
#242=(NAMED_UNIT(*)PLANE_ANGLE_UNIT()SI_UNIT($,.RADIAN.));
#243=DIMENSIONAL_EXPONENTS(0.0,0.0,0.0,0.0,0.0,0.0,0.0);
#244=PLANE_ANGLE_MEASURE_WITH_UNIT(PLANE_ANGLE_MEASURE(0.0174532925),#242);
#248=(CONVERSION_BASED_UNIT('DEGREE',#244)NAMED_UNIT(#243)PLANE_ANGLE_UNIT());
#252=(NAMED_UNIT(*)SI_UNIT($,.STERADIAN.)SOLID_ANGLE_UNIT());
#256=(LENGTH_UNIT()NAMED_UNIT(*)SI_UNIT(.MILLI.,.METRE.));
#258=UNCERTAINTY_MEASURE_WITH_UNIT(LENGTH_MEASURE(0.000001),#256,'DISTANCE_ACCURACY_VALUE','');
#260=(GEOMETRIC_REPRESENTATION_CONTEXT(3)GLOBAL_UNCERTAINTY_ASSIGNED_CONTEXT((#258))GLOBAL_UNIT_ASSIGNED_CONTEXT((#248,#252,#256))REPRESENTATION_CONTEXT('','3D'));
#261=CARTESIAN_POINT('',(0.0,0.0,0.0));
#262=DIRECTION('',(0.0,0.0,1.0));
#263=DIRECTION('',(-1.0,0.0,0.0));
#264=AXIS2_PLACEMENT_3D('',#261,#262,#263);
#265=CYLINDRICAL_SURFACE('',#264,15.0);
#266=CARTESIAN_POINT('',(15.0,1.836970E-015,400.0));
#267=VERTEX_POINT('',#266);
#268=CARTESIAN_POINT('',(0.0,0.0,400.0));
#269=DIRECTION('',(0.0,0.0,-1.0));
#270=DIRECTION('',(-1.0,0.0,0.0));
#271=AXIS2_PLACEMENT_3D('',#268,#269,#270);
#272=CIRCLE('',#271,15.0);
#273=EDGE_CURVE('',#267,#267,#272,.T.);
#274=ORIENTED_EDGE('',*,*,#273,.T.);
#275=EDGE_LOOP('',(#274));
#276=FACE_OUTER_BOUND('',#275,.T.);
#277=CARTESIAN_POINT('',(15.0,1.836970E-015,0.0));
#278=VERTEX_POINT('',#277);
#279=CARTESIAN_POINT('',(0.0,0.0,0.0));
#280=DIRECTION('',(0.0,0.0,-1.0));
#281=DIRECTION('',(-1.0,0.0,0.0));
#282=AXIS2_PLACEMENT_3D('',#279,#280,#281);
#283=CIRCLE('',#282,15.0);
#284=EDGE_CURVE('',#278,#278,#283,.T.);
#285=ORIENTED_EDGE('',*,*,#284,.F.);
#286=EDGE_LOOP('',(#285));
#287=FACE_BOUND('',#286,.T.);
#288=ADVANCED_FACE('',(#276,#287),#265,.T.);
#289=CARTESIAN_POINT('',(0.0,0.0,400.0));
#290=DIRECTION('',(0.0,0.0,-1.0));
#291=DIRECTION('',(-1.0,0.0,0.0));
#292=AXIS2_PLACEMENT_3D('',#289,#290,#291);
#293=PLANE('',#292);
#294=ORIENTED_EDGE('',*,*,#273,.F.);
#295=EDGE_LOOP('',(#294));
#296=FACE_OUTER_BOUND('',#295,.T.);
#297=ADVANCED_FACE('',(#296),#293,.F.);
#298=CARTESIAN_POINT('',(0.0,0.0,0.0));
#299=DIRECTION('',(0.0,0.0,-1.0));
#300=DIRECTION('',(-1.0,0.0,0.0));
#301=AXIS2_PLACEMENT_3D('',#298,#299,#300);
#302=PLANE('',#301);
#303=ORIENTED_EDGE('',*,*,#284,.T.);
#304=EDGE_LOOP('',(#303));
#305=FACE_OUTER_BOUND('',#304,.T.);
#306=ADVANCED_FACE('',(#305),#302,.T.);
#307=CLOSED_SHELL('',(#288,#297,#306));
#308=MANIFOLD_SOLID_BREP('Volumenk\S\vrper1',#307);
#309=STYLED_ITEM('',(#181),#308);
#310=ADVANCED_BREP_SHAPE_REPRESENTATION('ABSR',(#308),#229);
#311=SHAPE_REPRESENTATION_RELATIONSHIP('SRR','None',#310,#234);
#312=AXIS2_PLACEMENT_3D('',#313,#314,#315);
#313=CARTESIAN_POINT('',(-42.643136771335399,-13.074238102310062,0.0));
#314=DIRECTION('',(-0.999999999999997,-6.643670E-017,-9.226149E-016));
#315=DIRECTION('',(-9.432690E-016,0.952712357153391,0.303873599589106));
#316=NEXT_ASSEMBLY_USAGE_OCCURRENCE('Kolbenstange_30:1','Kolbenstange_30:1','Kolbenstange_30:1',#12,#205,'Kolbenstange_30:1');
#317=PRODUCT_DEFINITION_SHAPE('Kolbenstange_30:1','Kolbenstange_30:1',#316);
#318=ITEM_DEFINED_TRANSFORMATION('Kolbenstange_30:1','Kolbenstange_30:1',#230,#312);
#322=(REPRESENTATION_RELATIONSHIP('Kolbenstange_30:1','Kolbenstange_30:1',#234,#41)REPRESENTATION_RELATIONSHIP_WITH_TRANSFORMATION(#318)SHAPE_REPRESENTATION_RELATIONSHIP());
#323=CONTEXT_DEPENDENT_SHAPE_REPRESENTATION(#322,#317);
#324=APPLICATION_CONTEXT('automotive design');
#325=APPLICATION_PROTOCOL_DEFINITION('International Standard','automotive_design',2001,#324);
#326=PRODUCT_CONTEXT('',#324,'mechanical');
#327=PRODUCT('Gewindeanschlu\S\__I0','Gewindeanschlu\S\__I0',$,(#326));
#328=PRODUCT_RELATED_PRODUCT_CATEGORY('part',$,(#327));
#329=PRODUCT_DEFINITION_FORMATION('',$,#327);
#330=PRODUCT_DEFINITION_CONTEXT('part definition',#324,'design');
#331=PRODUCT_DEFINITION('',$,#329,#330);
#337=(NAMED_UNIT(*)PLANE_ANGLE_UNIT()SI_UNIT($,.RADIAN.));
#338=DIMENSIONAL_EXPONENTS(0.0,0.0,0.0,0.0,0.0,0.0,0.0);
#339=PLANE_ANGLE_MEASURE_WITH_UNIT(PLANE_ANGLE_MEASURE(0.0174532925),#337);
#343=(CONVERSION_BASED_UNIT('DEGREE',#339)NAMED_UNIT(#338)PLANE_ANGLE_UNIT());
#347=(NAMED_UNIT(*)SI_UNIT($,.STERADIAN.)SOLID_ANGLE_UNIT());
#351=(LENGTH_UNIT()NAMED_UNIT(*)SI_UNIT(.MILLI.,.METRE.));
#353=UNCERTAINTY_MEASURE_WITH_UNIT(LENGTH_MEASURE(0.01),#351,'DISTANCE_ACCURACY_VALUE','');
#355=(GEOMETRIC_REPRESENTATION_CONTEXT(3)GLOBAL_UNCERTAINTY_ASSIGNED_CONTEXT((#353))GLOBAL_UNIT_ASSIGNED_CONTEXT((#343,#347,#351))REPRESENTATION_CONTEXT('None','None'));
#356=AXIS2_PLACEMENT_3D('',#357,#358,#359);
#357=CARTESIAN_POINT('',(0.0,0.0,0.0));
#358=DIRECTION('',(0.0,0.0,1.0));
#359=DIRECTION('',(1.0,0.0,0.0));
#360=SHAPE_REPRESENTATION('',(#356),#355);
#361=PRODUCT_DEFINITION_SHAPE('','',#331);
#362=SHAPE_DEFINITION_REPRESENTATION(#361,#360);
#368=(NAMED_UNIT(*)PLANE_ANGLE_UNIT()SI_UNIT($,.RADIAN.));
#369=DIMENSIONAL_EXPONENTS(0.0,0.0,0.0,0.0,0.0,0.0,0.0);
#370=PLANE_ANGLE_MEASURE_WITH_UNIT(PLANE_ANGLE_MEASURE(0.0174532925),#368);
#374=(CONVERSION_BASED_UNIT('DEGREE',#370)NAMED_UNIT(#369)PLANE_ANGLE_UNIT());
#378=(NAMED_UNIT(*)SI_UNIT($,.STERADIAN.)SOLID_ANGLE_UNIT());
#382=(LENGTH_UNIT()NAMED_UNIT(*)SI_UNIT(.MILLI.,.METRE.));
#384=UNCERTAINTY_MEASURE_WITH_UNIT(LENGTH_MEASURE(0.000001),#382,'DISTANCE_ACCURACY_VALUE','');
#386=(GEOMETRIC_REPRESENTATION_CONTEXT(3)GLOBAL_UNCERTAINTY_ASSIGNED_CONTEXT((#384))GLOBAL_UNIT_ASSIGNED_CONTEXT((#374,#378,#382))REPRESENTATION_CONTEXT('','3D'));
#387=CARTESIAN_POINT('',(49.912778413837145,-4.778622571746041,0.0));
#388=DIRECTION('',(-1.0,0.0,0.0));
#389=DIRECTION('',(0.0,-1.0,0.0));
#390=AXIS2_PLACEMENT_3D('',#387,#388,#389);
#391=CONICAL_SURFACE('',#390,11.249999999999885,44.99999999999995);
#392=CARTESIAN_POINT('',(49.162778413837145,7.221377428253845,1.469528E-015));
#393=VERTEX_POINT('',#392);
#394=CARTESIAN_POINT('',(49.162778413837145,-4.778622571746041,0.0));
#395=DIRECTION('',(1.0,0.0,0.0));
#396=DIRECTION('',(0.0,-1.0,0.0));
#397=AXIS2_PLACEMENT_3D('',#394,#395,#396);
#398=CIRCLE('',#397,11.999999999999886);
#399=EDGE_CURVE('',#393,#393,#398,.T.);
#400=ORIENTED_EDGE('',*,*,#399,.T.);
#401=EDGE_LOOP('',(#400));
#402=FACE_OUTER_BOUND('',#401,.T.);
#403=CARTESIAN_POINT('',(50.662778413837152,5.721377428253844,-1.285837E-015));
#404=VERTEX_POINT('',#403);
#405=CARTESIAN_POINT('',(50.662778413837152,-4.778622571746041,0.0));
#406=DIRECTION('',(-1.0,0.0,0.0));
#407=DIRECTION('',(0.0,-1.0,0.0));
#408=AXIS2_PLACEMENT_3D('',#405,#406,#407);
#409=CIRCLE('',#408,10.499999999999885);
#410=EDGE_CURVE('',#404,#404,#409,.T.);
#411=ORIENTED_EDGE('',*,*,#410,.T.);
#412=EDGE_LOOP('',(#411));
#413=FACE_BOUND('',#412,.T.);
#414=ADVANCED_FACE('',(#402,#413),#391,.T.);
#415=CARTESIAN_POINT('',(33.162778413837152,-4.778622571746041,0.0));
#416=DIRECTION('',(1.0,0.0,0.0));
#417=DIRECTION('',(0.0,1.0,0.0));
#418=AXIS2_PLACEMENT_3D('',#415,#416,#417);
#419=CYLINDRICAL_SURFACE('',#418,11.999999999999886);
#420=CARTESIAN_POINT('',(15.662778413837145,7.221377428253845,0.0));
#421=VERTEX_POINT('',#420);
#422=CARTESIAN_POINT('',(15.662778413837145,-4.778622571746041,0.0));
#423=DIRECTION('',(1.0,0.0,0.0));
#424=DIRECTION('',(0.0,1.0,0.0));
#425=AXIS2_PLACEMENT_3D('',#422,#423,#424);
#426=CIRCLE('',#425,11.999999999999886);
#427=EDGE_CURVE('',#421,#421,#426,.T.);
#428=ORIENTED_EDGE('',*,*,#427,.T.);
#429=EDGE_LOOP('',(#428));
#430=FACE_OUTER_BOUND('',#429,.T.);
#431=ORIENTED_EDGE('',*,*,#399,.F.);
#432=EDGE_LOOP('',(#431));
#433=FACE_BOUND('',#432,.T.);
#434=ADVANCED_FACE('',(#430,#433),#419,.T.);
#435=CARTESIAN_POINT('',(50.662778413837152,1.221377428253902,0.0));
#436=DIRECTION('',(1.0,0.0,0.0));
#437=DIRECTION('',(0.0,0.0,-1.0));
#438=AXIS2_PLACEMENT_3D('',#435,#436,#437);
#439=PLANE('',#438);
#440=ORIENTED_EDGE('',*,*,#410,.F.);
#441=EDGE_LOOP('',(#440));
#442=FACE_OUTER_BOUND('',#441,.T.);
#443=ADVANCED_FACE('',(#442),#439,.T.);
#444=CARTESIAN_POINT('',(-4.337221586162855,12.721377428253959,0.0));
#445=DIRECTION('',(-1.0,0.0,0.0));
#446=DIRECTION('',(0.0,0.0,1.0));
#447=AXIS2_PLACEMENT_3D('',#444,#445,#446);
#448=PLANE('',#447);
#449=CARTESIAN_POINT('',(-4.337221586162855,30.221377428253962,0.0));
#450=VERTEX_POINT('',#449);
#451=CARTESIAN_POINT('',(-4.337221586162854,-4.778622571746041,0.0));
#452=DIRECTION('',(1.0,0.0,0.0));
#453=DIRECTION('',(0.0,1.0,0.0));
#454=AXIS2_PLACEMENT_3D('',#451,#452,#453);
#455=CIRCLE('',#454,35.000000000000007);
#456=EDGE_CURVE('',#450,#450,#455,.T.);
#457=ORIENTED_EDGE('',*,*,#456,.F.);
#458=EDGE_LOOP('',(#457));
#459=FACE_OUTER_BOUND('',#458,.T.);
#460=ADVANCED_FACE('',(#459),#448,.T.);
#461=CARTESIAN_POINT('',(3.912778413837146,-4.778622571746041,0.0));
#462=DIRECTION('',(1.0,0.0,0.0));
#463=DIRECTION('',(0.0,1.0,0.0));
#464=AXIS2_PLACEMENT_3D('',#461,#462,#463);
#465=CYLINDRICAL_SURFACE('',#464,34.999999999999893);
#466=CARTESIAN_POINT('',(12.162778413837145,30.221377428253735,0.0));
#467=VERTEX_POINT('',#466);
#468=CARTESIAN_POINT('',(12.162778413837145,-4.778622571746041,0.0));
#469=DIRECTION('',(1.0,0.0,0.0));
#470=DIRECTION('',(0.0,1.0,0.0));
#471=AXIS2_PLACEMENT_3D('',#468,#469,#470);
#472=CIRCLE('',#471,34.99999999999978);
#473=EDGE_CURVE('',#467,#467,#472,.T.);
#474=ORIENTED_EDGE('',*,*,#473,.F.);
#475=EDGE_LOOP('',(#474));
#476=FACE_OUTER_BOUND('',#475,.T.);
#477=ORIENTED_EDGE('',*,*,#456,.T.);
#478=EDGE_LOOP('',(#477));
#479=FACE_BOUND('',#478,.T.);
#480=ADVANCED_FACE('',(#476,#479),#465,.T.);
#481=CARTESIAN_POINT('',(12.162778413837145,-4.778622571746043,0.0));
#482=DIRECTION('',(1.0,0.0,0.0));
#483=DIRECTION('',(0.0,0.0,-1.0));
#484=AXIS2_PLACEMENT_3D('',#481,#482,#483);
#485=TOROIDAL_SURFACE('',#484,31.499999999999776,3.5);
#486=CARTESIAN_POINT('',(15.662778413837145,26.721377428253735,0.0));
#487=VERTEX_POINT('',#486);
#488=CARTESIAN_POINT('',(15.662778413837145,-4.778622571746041,0.0));
#489=DIRECTION('',(1.0,0.0,0.0));
#490=DIRECTION('',(0.0,1.0,0.0));
#491=AXIS2_PLACEMENT_3D('',#488,#489,#490);
#492=CIRCLE('',#491,31.499999999999776);
#493=EDGE_CURVE('',#487,#487,#492,.T.);
#494=ORIENTED_EDGE('',*,*,#493,.F.);
#495=EDGE_LOOP('',(#494));
#496=FACE_OUTER_BOUND('',#495,.T.);
#497=ORIENTED_EDGE('',*,*,#473,.T.);
#498=EDGE_LOOP('',(#497));
#499=FACE_BOUND('',#498,.T.);
#500=ADVANCED_FACE('',(#496,#499),#485,.T.);
#501=CARTESIAN_POINT('',(15.662778413837145,16.971377428253792,0.0));
#502=DIRECTION('',(1.0,0.0,0.0));
#503=DIRECTION('',(0.0,0.0,-1.0));
#504=AXIS2_PLACEMENT_3D('',#501,#502,#503);
#505=PLANE('',#504);
#506=ORIENTED_EDGE('',*,*,#493,.T.);
#507=EDGE_LOOP('',(#506));
#508=FACE_OUTER_BOUND('',#507,.T.);
#509=ORIENTED_EDGE('',*,*,#427,.F.);
#510=EDGE_LOOP('',(#509));
#511=FACE_BOUND('',#510,.T.);
#512=ADVANCED_FACE('',(#508,#511),#505,.T.);
#513=CLOSED_SHELL('',(#414,#434,#443,#460,#480,#500,#512));
#514=MANIFOLD_SOLID_BREP('Volumenk\S\vrper1',#513);
#515=COLOUR_RGB('',0.949020028114319,0.925490021705627,0.933332979679108);
#516=FILL_AREA_STYLE_COLOUR('',#515);
#517=FILL_AREA_STYLE('',(#516));
#518=SURFACE_STYLE_FILL_AREA(#517);
#519=SURFACE_SIDE_STYLE('',(#518));
#520=SURFACE_STYLE_USAGE(.BOTH.,#519);
#521=PRESENTATION_STYLE_ASSIGNMENT((#520));
#522=STYLED_ITEM('',(#521),#434);
#523=STYLED_ITEM('',(#521),#443);
#524=MECHANICAL_DESIGN_GEOMETRIC_PRESENTATION_REPRESENTATION('',(#522,#523),#386);
#525=STYLED_ITEM('',(#181),#514);
#526=ADVANCED_BREP_SHAPE_REPRESENTATION('ABSR',(#514),#355);
#527=SHAPE_REPRESENTATION_RELATIONSHIP('SRR','None',#526,#360);
#528=AXIS2_PLACEMENT_3D('',#529,#530,#531);
#529=CARTESIAN_POINT('',(461.69408481482714,-8.295615530564067,0.0));
#530=DIRECTION('',(0.0,0.0,1.0));
#531=DIRECTION('',(1.0,0.0,0.0));
#532=NEXT_ASSEMBLY_USAGE_OCCURRENCE('Gewindeanschlu\S\__I0:1','Gewindeanschlu\S\__I0:1','Gewindeanschlu\S\__I0:1',#12,#331,'Gewindeanschlu\S\__I0:1');
#533=PRODUCT_DEFINITION_SHAPE('Gewindeanschlu\S\__I0:1','Gewindeanschlu\S\__I0:1',#532);
#534=ITEM_DEFINED_TRANSFORMATION('Gewindeanschlu\S\__I0:1','Gewindeanschlu\S\__I0:1',#356,#528);
#538=(REPRESENTATION_RELATIONSHIP('Gewindeanschlu\S\__I0:1','Gewindeanschlu\S\__I0:1',#360,#41)REPRESENTATION_RELATIONSHIP_WITH_TRANSFORMATION(#534)SHAPE_REPRESENTATION_RELATIONSHIP());
#539=CONTEXT_DEPENDENT_SHAPE_REPRESENTATION(#538,#533);
#540=APPLICATION_CONTEXT('automotive design');
#541=APPLICATION_PROTOCOL_DEFINITION('International Standard','automotive_design',2001,#540);
#542=PRODUCT_CONTEXT('',#540,'mechanical');
#543=PRODUCT('Gewindeanschlu\S\__I0','Gewindeanschlu\S\__I0',$,(#542));
#544=PRODUCT_RELATED_PRODUCT_CATEGORY('part',$,(#543));
#545=PRODUCT_DEFINITION_FORMATION('',$,#543);
#546=PRODUCT_DEFINITION_CONTEXT('part definition',#540,'design');
#547=PRODUCT_DEFINITION('',$,#545,#546);
#553=(NAMED_UNIT(*)PLANE_ANGLE_UNIT()SI_UNIT($,.RADIAN.));
#554=DIMENSIONAL_EXPONENTS(0.0,0.0,0.0,0.0,0.0,0.0,0.0);
#555=PLANE_ANGLE_MEASURE_WITH_UNIT(PLANE_ANGLE_MEASURE(0.0174532925),#553);
#559=(CONVERSION_BASED_UNIT('DEGREE',#555)NAMED_UNIT(#554)PLANE_ANGLE_UNIT());
#563=(NAMED_UNIT(*)SI_UNIT($,.STERADIAN.)SOLID_ANGLE_UNIT());
#567=(LENGTH_UNIT()NAMED_UNIT(*)SI_UNIT(.MILLI.,.METRE.));
#569=UNCERTAINTY_MEASURE_WITH_UNIT(LENGTH_MEASURE(0.01),#567,'DISTANCE_ACCURACY_VALUE','');
#571=(GEOMETRIC_REPRESENTATION_CONTEXT(3)GLOBAL_UNCERTAINTY_ASSIGNED_CONTEXT((#569))GLOBAL_UNIT_ASSIGNED_CONTEXT((#559,#563,#567))REPRESENTATION_CONTEXT('None','None'));
#572=AXIS2_PLACEMENT_3D('',#573,#574,#575);
#573=CARTESIAN_POINT('',(0.0,0.0,0.0));
#574=DIRECTION('',(0.0,0.0,1.0));
#575=DIRECTION('',(1.0,0.0,0.0));
#576=SHAPE_REPRESENTATION('',(#572),#571);
#577=PRODUCT_DEFINITION_SHAPE('','',#547);
#578=SHAPE_DEFINITION_REPRESENTATION(#577,#576);
#584=(NAMED_UNIT(*)PLANE_ANGLE_UNIT()SI_UNIT($,.RADIAN.));
#585=DIMENSIONAL_EXPONENTS(0.0,0.0,0.0,0.0,0.0,0.0,0.0);
#586=PLANE_ANGLE_MEASURE_WITH_UNIT(PLANE_ANGLE_MEASURE(0.0174532925),#584);
#590=(CONVERSION_BASED_UNIT('DEGREE',#586)NAMED_UNIT(#585)PLANE_ANGLE_UNIT());
#594=(NAMED_UNIT(*)SI_UNIT($,.STERADIAN.)SOLID_ANGLE_UNIT());
#598=(LENGTH_UNIT()NAMED_UNIT(*)SI_UNIT(.MILLI.,.METRE.));
#600=UNCERTAINTY_MEASURE_WITH_UNIT(LENGTH_MEASURE(0.000001),#598,'DISTANCE_ACCURACY_VALUE','');
#602=(GEOMETRIC_REPRESENTATION_CONTEXT(3)GLOBAL_UNCERTAINTY_ASSIGNED_CONTEXT((#600))GLOBAL_UNIT_ASSIGNED_CONTEXT((#590,#594,#598))REPRESENTATION_CONTEXT('','3D'));
#603=CARTESIAN_POINT('',(0.0,0.0,34.600000000000001));
#604=DIRECTION('',(0.0,0.0,-1.0));
#605=DIRECTION('',(-1.0,0.0,0.0));
#606=AXIS2_PLACEMENT_3D('',#603,#604,#605);
#607=CONICAL_SURFACE('',#606,11.600000000000001,45.000000000000007);
#608=CARTESIAN_POINT('',(11.200000000000001,-1.371559E-015,35.0));
#609=VERTEX_POINT('',#608);
#610=CARTESIAN_POINT('',(0.0,0.0,35.0));
#611=DIRECTION('',(0.0,0.0,-1.0));
#612=DIRECTION('',(-1.0,0.0,0.0));
#613=AXIS2_PLACEMENT_3D('',#610,#611,#612);
#614=CIRCLE('',#613,11.200000000000001);
#615=EDGE_CURVE('',#609,#609,#614,.T.);
#616=ORIENTED_EDGE('',*,*,#615,.T.);
#617=EDGE_LOOP('',(#616));
#618=FACE_OUTER_BOUND('',#617,.T.);
#619=CARTESIAN_POINT('',(12.000000000000002,1.469528E-015,34.200000000000003));
#620=VERTEX_POINT('',#619);
#621=CARTESIAN_POINT('',(0.0,0.0,34.200000000000003));
#622=DIRECTION('',(0.0,0.0,1.0));
#623=DIRECTION('',(-1.0,0.0,0.0));
#624=AXIS2_PLACEMENT_3D('',#621,#622,#623);
#625=CIRCLE('',#624,12.000000000000002);
#626=EDGE_CURVE('',#620,#620,#625,.T.);
#627=ORIENTED_EDGE('',*,*,#626,.T.);
#628=EDGE_LOOP('',(#627));
#629=FACE_BOUND('',#628,.T.);
#630=ADVANCED_FACE('',(#618,#629),#607,.T.);
#631=CARTESIAN_POINT('',(0.0,0.0,0.0));
#632=DIRECTION('',(0.0,0.0,1.0));
#633=DIRECTION('',(-1.0,0.0,0.0));
#634=AXIS2_PLACEMENT_3D('',#631,#632,#633);
#635=CYLINDRICAL_SURFACE('',#634,12.000000000000002);
#636=CARTESIAN_POINT('',(12.000000000000002,1.469576E-015,0.0));
#637=VERTEX_POINT('',#636);
#638=CARTESIAN_POINT('',(0.0,0.0,0.0));
#639=DIRECTION('',(0.0,0.0,-1.0));
#640=DIRECTION('',(-1.0,0.0,0.0));
#641=AXIS2_PLACEMENT_3D('',#638,#639,#640);
#642=CIRCLE('',#641,12.000000000000002);
#643=EDGE_CURVE('',#637,#637,#642,.T.);
#644=ORIENTED_EDGE('',*,*,#643,.F.);
#645=EDGE_LOOP('',(#644));
#646=FACE_OUTER_BOUND('',#645,.T.);
#647=ORIENTED_EDGE('',*,*,#626,.F.);
#648=EDGE_LOOP('',(#647));
#649=FACE_BOUND('',#648,.T.);
#650=ADVANCED_FACE('',(#646,#649),#635,.T.);
#651=CARTESIAN_POINT('',(0.0,0.0,35.0));
#652=DIRECTION('',(0.0,0.0,-1.0));
#653=DIRECTION('',(-1.0,0.0,0.0));
#654=AXIS2_PLACEMENT_3D('',#651,#652,#653);
#655=PLANE('',#654);
#656=ORIENTED_EDGE('',*,*,#615,.F.);
#657=EDGE_LOOP('',(#656));
#658=FACE_OUTER_BOUND('',#657,.T.);
#659=ADVANCED_FACE('',(#658),#655,.F.);
#660=CARTESIAN_POINT('',(0.0,0.0,0.0));
#661=DIRECTION('',(0.0,0.0,-1.0));
#662=DIRECTION('',(-1.0,0.0,0.0));
#663=AXIS2_PLACEMENT_3D('',#660,#661,#662);
#664=PLANE('',#663);
#665=ORIENTED_EDGE('',*,*,#643,.T.);
#666=EDGE_LOOP('',(#665));
#667=FACE_OUTER_BOUND('',#666,.T.);
#668=ADVANCED_FACE('',(#667),#664,.T.);
#669=CLOSED_SHELL('',(#630,#650,#659,#668));
#670=MANIFOLD_SOLID_BREP('Volumenk\S\vrper1',#669);
#671=COLOUR_RGB('',0.305882006883621,0.305882006883621,0.305882006883621);
#672=FILL_AREA_STYLE_COLOUR('',#671);
#673=FILL_AREA_STYLE('',(#672));
#674=SURFACE_STYLE_FILL_AREA(#673);
#675=SURFACE_SIDE_STYLE('',(#674));
#676=SURFACE_STYLE_USAGE(.BOTH.,#675);
#677=PRESENTATION_STYLE_ASSIGNMENT((#676));
#678=STYLED_ITEM('',(#677),#630);
#679=STYLED_ITEM('',(#677),#650);
#680=STYLED_ITEM('',(#677),#659);
#681=MECHANICAL_DESIGN_GEOMETRIC_PRESENTATION_REPRESENTATION('',(#678,#679,#680),#602);
#682=STYLED_ITEM('',(#181),#670);
#683=ADVANCED_BREP_SHAPE_REPRESENTATION('ABSR',(#670),#571);
#684=SHAPE_REPRESENTATION_RELATIONSHIP('SRR','None',#683,#576);
#685=AXIS2_PLACEMENT_3D('',#686,#687,#688);
#686=CARTESIAN_POINT('',(-442.64313677133401,-13.07423810231009,-3.690460E-013));
#687=DIRECTION('',(-1.000000000000001,-7.125580E-016,-2.534552E-016));
#688=DIRECTION('',(-9.832166E-016,0.99614429485941,0.087729948244908));
#689=NEXT_ASSEMBLY_USAGE_OCCURRENCE('Gewindeanschlu\S\__I0:2','Gewindeanschlu\S\__I0:2','Gewindeanschlu\S\__I0:2',#12,#547,'Gewindeanschlu\S\__I0:2');
#690=PRODUCT_DEFINITION_SHAPE('Gewindeanschlu\S\__I0:2','Gewindeanschlu\S\__I0:2',#689);
#691=ITEM_DEFINED_TRANSFORMATION('Gewindeanschlu\S\__I0:2','Gewindeanschlu\S\__I0:2',#572,#685);
#695=(REPRESENTATION_RELATIONSHIP('Gewindeanschlu\S\__I0:2','Gewindeanschlu\S\__I0:2',#576,#41)REPRESENTATION_RELATIONSHIP_WITH_TRANSFORMATION(#691)SHAPE_REPRESENTATION_RELATIONSHIP());
#696=CONTEXT_DEPENDENT_SHAPE_REPRESENTATION(#695,#690);
ENDSEC;
END-ISO-10303-21;
