ISO-10303-21;
HEADER;
/* Generated by software containing ST-Developer
 * from STEP Tools, Inc. (www.steptools.com) 
 */

FILE_DESCRIPTION(
/* description */ (''),
/* implementation_level */ '2;1');

FILE_NAME(
/* name */ 
'X:\\3D-Zeichnungen\\Zusammenbau-Zeichungen\\Kundenzeichnungen\\Gaszug
feder\\D\\D0M0ZF3-350-450--003-200N\\Step-Datei\\D0M0ZF3-350-450--003-
200N.stp',
/* time_stamp */ '2014-08-22T07:37:16+02:00',
/* author */ ('CADNEU'),
/* organization */ (''),
/* preprocessor_version */ 'ST-DEVELOPER v15.2',
/* originating_system */ 'Autodesk Inventor 2014',
/* authorisation */ '');

FILE_SCHEMA (('AUTOMOTIVE_DESIGN { 1 0 10303 214 3 1 1 }'));
ENDSEC;

DATA;
#10=ITEM_DEFINED_TRANSFORMATION($,$,#288,#337);
#11=ITEM_DEFINED_TRANSFORMATION($,$,#304,#338);
#12=ITEM_DEFINED_TRANSFORMATION($,$,#310,#339);
#13=ITEM_DEFINED_TRANSFORMATION($,$,#318,#340);
#14=(
REPRESENTATION_RELATIONSHIP($,$,#550,#554)
REPRESENTATION_RELATIONSHIP_WITH_TRANSFORMATION(#10)
SHAPE_REPRESENTATION_RELATIONSHIP()
);
#15=(
REPRESENTATION_RELATIONSHIP($,$,#551,#554)
REPRESENTATION_RELATIONSHIP_WITH_TRANSFORMATION(#11)
SHAPE_REPRESENTATION_RELATIONSHIP()
);
#16=(
REPRESENTATION_RELATIONSHIP($,$,#552,#554)
REPRESENTATION_RELATIONSHIP_WITH_TRANSFORMATION(#12)
SHAPE_REPRESENTATION_RELATIONSHIP()
);
#17=(
REPRESENTATION_RELATIONSHIP($,$,#553,#554)
REPRESENTATION_RELATIONSHIP_WITH_TRANSFORMATION(#13)
SHAPE_REPRESENTATION_RELATIONSHIP()
);
#18=CONTEXT_DEPENDENT_SHAPE_REPRESENTATION(#14,#546);
#19=CONTEXT_DEPENDENT_SHAPE_REPRESENTATION(#15,#547);
#20=CONTEXT_DEPENDENT_SHAPE_REPRESENTATION(#16,#548);
#21=CONTEXT_DEPENDENT_SHAPE_REPRESENTATION(#17,#549);
#22=NEXT_ASSEMBLY_USAGE_OCCURRENCE('Zylinder_28:1',$,$,#560,#556,$);
#23=NEXT_ASSEMBLY_USAGE_OCCURRENCE('Kolbenstange_10:1',$,$,#560,#557,$);
#24=NEXT_ASSEMBLY_USAGE_OCCURRENCE('Gewindeanschlu\X\DF_D0:1',$,$,#560,
#558,$);
#25=NEXT_ASSEMBLY_USAGE_OCCURRENCE('Gewindeanschlu\X\DF_M0_28:1',$,$,#560,
#559,$);
#26=SHAPE_REPRESENTATION_RELATIONSHIP('SRR','None',#550,#30);
#27=SHAPE_REPRESENTATION_RELATIONSHIP('SRR','None',#551,#31);
#28=SHAPE_REPRESENTATION_RELATIONSHIP('SRR','None',#552,#32);
#29=SHAPE_REPRESENTATION_RELATIONSHIP('SRR','None',#553,#33);
#30=ADVANCED_BREP_SHAPE_REPRESENTATION($,(#284),#525);
#31=ADVANCED_BREP_SHAPE_REPRESENTATION($,(#285),#526);
#32=ADVANCED_BREP_SHAPE_REPRESENTATION($,(#286),#527);
#33=ADVANCED_BREP_SHAPE_REPRESENTATION($,(#287),#528);
#34=PLANE($,#302);
#35=PLANE($,#303);
#36=PLANE($,#305);
#37=PLANE($,#309);
#38=PLANE($,#311);
#39=PLANE($,#317);
#40=PLANE($,#324);
#41=PLANE($,#325);
#42=PLANE($,#335);
#43=TOROIDAL_SURFACE($,#298,7.92499999999999,6.07499999999999);
#44=TOROIDAL_SURFACE($,#329,7.89999999999992,6.10000000000008);
#45=CYLINDRICAL_SURFACE($,#292,9.89999999999999);
#46=CYLINDRICAL_SURFACE($,#300,14.);
#47=CYLINDRICAL_SURFACE($,#307,5.00000000000004);
#48=CYLINDRICAL_SURFACE($,#315,5.);
#49=CYLINDRICAL_SURFACE($,#319,5.);
#50=CYLINDRICAL_SURFACE($,#327,14.);
#51=CYLINDRICAL_SURFACE($,#333,9.95);
#52=FACE_BOUND($,#93,.T.);
#53=FACE_BOUND($,#95,.T.);
#54=FACE_BOUND($,#97,.T.);
#55=FACE_BOUND($,#99,.T.);
#56=FACE_BOUND($,#101,.T.);
#57=FACE_BOUND($,#103,.T.);
#58=FACE_BOUND($,#108,.T.);
#59=FACE_BOUND($,#112,.T.);
#60=FACE_BOUND($,#114,.T.);
#61=FACE_BOUND($,#117,.T.);
#62=FACE_BOUND($,#119,.T.);
#63=FACE_BOUND($,#123,.T.);
#64=FACE_BOUND($,#125,.T.);
#65=FACE_BOUND($,#127,.T.);
#66=FACE_BOUND($,#129,.T.);
#67=FACE_BOUND($,#130,.T.);
#68=FACE_BOUND($,#131,.T.);
#69=FACE_OUTER_BOUND($,#92,.T.);
#70=FACE_OUTER_BOUND($,#94,.T.);
#71=FACE_OUTER_BOUND($,#96,.T.);
#72=FACE_OUTER_BOUND($,#98,.T.);
#73=FACE_OUTER_BOUND($,#100,.T.);
#74=FACE_OUTER_BOUND($,#102,.T.);
#75=FACE_OUTER_BOUND($,#104,.T.);
#76=FACE_OUTER_BOUND($,#105,.T.);
#77=FACE_OUTER_BOUND($,#106,.T.);
#78=FACE_OUTER_BOUND($,#107,.T.);
#79=FACE_OUTER_BOUND($,#109,.T.);
#80=FACE_OUTER_BOUND($,#110,.T.);
#81=FACE_OUTER_BOUND($,#111,.T.);
#82=FACE_OUTER_BOUND($,#113,.T.);
#83=FACE_OUTER_BOUND($,#115,.T.);
#84=FACE_OUTER_BOUND($,#116,.T.);
#85=FACE_OUTER_BOUND($,#118,.T.);
#86=FACE_OUTER_BOUND($,#120,.T.);
#87=FACE_OUTER_BOUND($,#121,.T.);
#88=FACE_OUTER_BOUND($,#122,.T.);
#89=FACE_OUTER_BOUND($,#124,.T.);
#90=FACE_OUTER_BOUND($,#126,.T.);
#91=FACE_OUTER_BOUND($,#128,.T.);
#92=EDGE_LOOP($,(#192));
#93=EDGE_LOOP($,(#193));
#94=EDGE_LOOP($,(#194));
#95=EDGE_LOOP($,(#195));
#96=EDGE_LOOP($,(#196));
#97=EDGE_LOOP($,(#197));
#98=EDGE_LOOP($,(#198));
#99=EDGE_LOOP($,(#199));
#100=EDGE_LOOP($,(#200));
#101=EDGE_LOOP($,(#201));
#102=EDGE_LOOP($,(#202));
#103=EDGE_LOOP($,(#203));
#104=EDGE_LOOP($,(#204));
#105=EDGE_LOOP($,(#205));
#106=EDGE_LOOP($,(#206));
#107=EDGE_LOOP($,(#207));
#108=EDGE_LOOP($,(#208));
#109=EDGE_LOOP($,(#209));
#110=EDGE_LOOP($,(#210));
#111=EDGE_LOOP($,(#211));
#112=EDGE_LOOP($,(#212));
#113=EDGE_LOOP($,(#213));
#114=EDGE_LOOP($,(#214));
#115=EDGE_LOOP($,(#215));
#116=EDGE_LOOP($,(#216));
#117=EDGE_LOOP($,(#217));
#118=EDGE_LOOP($,(#218));
#119=EDGE_LOOP($,(#219));
#120=EDGE_LOOP($,(#220));
#121=EDGE_LOOP($,(#221));
#122=EDGE_LOOP($,(#222));
#123=EDGE_LOOP($,(#223));
#124=EDGE_LOOP($,(#224));
#125=EDGE_LOOP($,(#225));
#126=EDGE_LOOP($,(#226));
#127=EDGE_LOOP($,(#227));
#128=EDGE_LOOP($,(#228));
#129=EDGE_LOOP($,(#229));
#130=EDGE_LOOP($,(#230));
#131=EDGE_LOOP($,(#231));
#132=CIRCLE($,#290,9.89999999999999);
#133=CIRCLE($,#291,9.69999999999997);
#134=CIRCLE($,#293,9.89999999999999);
#135=CIRCLE($,#295,9.69999999999999);
#136=CIRCLE($,#297,9.26808453549055);
#137=CIRCLE($,#299,14.);
#138=CIRCLE($,#301,14.);
#139=CIRCLE($,#306,5.);
#140=CIRCLE($,#308,5.00000000000008);
#141=CIRCLE($,#312,4.5);
#142=CIRCLE($,#314,5.);
#143=CIRCLE($,#316,5.);
#144=CIRCLE($,#320,5.);
#145=CIRCLE($,#321,5.);
#146=CIRCLE($,#323,4.49999999999997);
#147=CIRCLE($,#326,14.0000000000001);
#148=CIRCLE($,#328,14.);
#149=CIRCLE($,#330,8.75);
#150=CIRCLE($,#332,9.95);
#151=CIRCLE($,#334,9.95);
#152=VERTEX_POINT($,#449);
#153=VERTEX_POINT($,#451);
#154=VERTEX_POINT($,#454);
#155=VERTEX_POINT($,#457);
#156=VERTEX_POINT($,#460);
#157=VERTEX_POINT($,#463);
#158=VERTEX_POINT($,#466);
#159=VERTEX_POINT($,#472);
#160=VERTEX_POINT($,#475);
#161=VERTEX_POINT($,#480);
#162=VERTEX_POINT($,#483);
#163=VERTEX_POINT($,#486);
#164=VERTEX_POINT($,#491);
#165=VERTEX_POINT($,#493);
#166=VERTEX_POINT($,#496);
#167=VERTEX_POINT($,#500);
#168=VERTEX_POINT($,#503);
#169=VERTEX_POINT($,#506);
#170=VERTEX_POINT($,#509);
#171=VERTEX_POINT($,#512);
#172=EDGE_CURVE($,#152,#152,#132,.T.);
#173=EDGE_CURVE($,#153,#153,#133,.T.);
#174=EDGE_CURVE($,#154,#154,#134,.T.);
#175=EDGE_CURVE($,#155,#155,#135,.T.);
#176=EDGE_CURVE($,#156,#156,#136,.T.);
#177=EDGE_CURVE($,#157,#157,#137,.T.);
#178=EDGE_CURVE($,#158,#158,#138,.T.);
#179=EDGE_CURVE($,#159,#159,#139,.T.);
#180=EDGE_CURVE($,#160,#160,#140,.T.);
#181=EDGE_CURVE($,#161,#161,#141,.T.);
#182=EDGE_CURVE($,#162,#162,#142,.T.);
#183=EDGE_CURVE($,#163,#163,#143,.T.);
#184=EDGE_CURVE($,#164,#164,#144,.T.);
#185=EDGE_CURVE($,#165,#165,#145,.T.);
#186=EDGE_CURVE($,#166,#166,#146,.T.);
#187=EDGE_CURVE($,#167,#167,#147,.T.);
#188=EDGE_CURVE($,#168,#168,#148,.T.);
#189=EDGE_CURVE($,#169,#169,#149,.T.);
#190=EDGE_CURVE($,#170,#170,#150,.T.);
#191=EDGE_CURVE($,#171,#171,#151,.T.);
#192=ORIENTED_EDGE($,*,*,#172,.F.);
#193=ORIENTED_EDGE($,*,*,#173,.T.);
#194=ORIENTED_EDGE($,*,*,#174,.F.);
#195=ORIENTED_EDGE($,*,*,#172,.T.);
#196=ORIENTED_EDGE($,*,*,#175,.F.);
#197=ORIENTED_EDGE($,*,*,#174,.T.);
#198=ORIENTED_EDGE($,*,*,#176,.F.);
#199=ORIENTED_EDGE($,*,*,#175,.T.);
#200=ORIENTED_EDGE($,*,*,#177,.F.);
#201=ORIENTED_EDGE($,*,*,#176,.T.);
#202=ORIENTED_EDGE($,*,*,#178,.F.);
#203=ORIENTED_EDGE($,*,*,#177,.T.);
#204=ORIENTED_EDGE($,*,*,#178,.T.);
#205=ORIENTED_EDGE($,*,*,#173,.F.);
#206=ORIENTED_EDGE($,*,*,#179,.F.);
#207=ORIENTED_EDGE($,*,*,#180,.F.);
#208=ORIENTED_EDGE($,*,*,#179,.T.);
#209=ORIENTED_EDGE($,*,*,#180,.T.);
#210=ORIENTED_EDGE($,*,*,#181,.F.);
#211=ORIENTED_EDGE($,*,*,#182,.F.);
#212=ORIENTED_EDGE($,*,*,#181,.T.);
#213=ORIENTED_EDGE($,*,*,#183,.F.);
#214=ORIENTED_EDGE($,*,*,#182,.T.);
#215=ORIENTED_EDGE($,*,*,#183,.T.);
#216=ORIENTED_EDGE($,*,*,#184,.F.);
#217=ORIENTED_EDGE($,*,*,#185,.T.);
#218=ORIENTED_EDGE($,*,*,#186,.F.);
#219=ORIENTED_EDGE($,*,*,#184,.T.);
#220=ORIENTED_EDGE($,*,*,#186,.T.);
#221=ORIENTED_EDGE($,*,*,#187,.F.);
#222=ORIENTED_EDGE($,*,*,#188,.F.);
#223=ORIENTED_EDGE($,*,*,#187,.T.);
#224=ORIENTED_EDGE($,*,*,#189,.F.);
#225=ORIENTED_EDGE($,*,*,#188,.T.);
#226=ORIENTED_EDGE($,*,*,#190,.F.);
#227=ORIENTED_EDGE($,*,*,#189,.T.);
#228=ORIENTED_EDGE($,*,*,#191,.F.);
#229=ORIENTED_EDGE($,*,*,#190,.T.);
#230=ORIENTED_EDGE($,*,*,#185,.F.);
#231=ORIENTED_EDGE($,*,*,#191,.T.);
#232=CONICAL_SURFACE($,#289,9.79999999999998,45.000000000004);
#233=CONICAL_SURFACE($,#294,9.79999999999999,44.9999999999999);
#234=CONICAL_SURFACE($,#296,9.48404226774527,75.0000000000003);
#235=CONICAL_SURFACE($,#313,4.75,45.);
#236=CONICAL_SURFACE($,#322,4.74999999999999,45.0000000000014);
#237=CONICAL_SURFACE($,#331,9.35,75.0000000000001);
#238=STYLED_ITEM($,(#575),#256);
#239=STYLED_ITEM($,(#575),#257);
#240=STYLED_ITEM($,(#575),#258);
#241=STYLED_ITEM($,(#575),#259);
#242=STYLED_ITEM($,(#576),#260);
#243=STYLED_ITEM($,(#576),#261);
#244=STYLED_ITEM($,(#576),#262);
#245=STYLED_ITEM($,(#575),#263);
#246=STYLED_ITEM($,(#574),#284);
#247=STYLED_ITEM($,(#576),#285);
#248=STYLED_ITEM($,(#576),#286);
#249=STYLED_ITEM($,(#575),#271);
#250=STYLED_ITEM($,(#575),#272);
#251=STYLED_ITEM($,(#575),#273);
#252=STYLED_ITEM($,(#575),#277);
#253=STYLED_ITEM($,(#575),#278);
#254=STYLED_ITEM($,(#575),#279);
#255=STYLED_ITEM($,(#576),#287);
#256=ADVANCED_FACE($,(#69,#52),#232,.T.);
#257=ADVANCED_FACE($,(#70,#53),#45,.T.);
#258=ADVANCED_FACE($,(#71,#54),#233,.T.);
#259=ADVANCED_FACE($,(#72,#55),#234,.T.);
#260=ADVANCED_FACE($,(#73,#56),#43,.T.);
#261=ADVANCED_FACE($,(#74,#57),#46,.T.);
#262=ADVANCED_FACE($,(#75),#34,.T.);
#263=ADVANCED_FACE($,(#76),#35,.T.);
#264=ADVANCED_FACE($,(#77),#36,.T.);
#265=ADVANCED_FACE($,(#78,#58),#47,.T.);
#266=ADVANCED_FACE($,(#79),#37,.T.);
#267=ADVANCED_FACE($,(#80),#38,.T.);
#268=ADVANCED_FACE($,(#81,#59),#235,.T.);
#269=ADVANCED_FACE($,(#82,#60),#48,.T.);
#270=ADVANCED_FACE($,(#83),#39,.T.);
#271=ADVANCED_FACE($,(#84,#61),#49,.T.);
#272=ADVANCED_FACE($,(#85,#62),#236,.T.);
#273=ADVANCED_FACE($,(#86),#40,.T.);
#274=ADVANCED_FACE($,(#87),#41,.T.);
#275=ADVANCED_FACE($,(#88,#63),#50,.T.);
#276=ADVANCED_FACE($,(#89,#64),#44,.T.);
#277=ADVANCED_FACE($,(#90,#65),#237,.T.);
#278=ADVANCED_FACE($,(#91,#66),#51,.T.);
#279=ADVANCED_FACE($,(#67,#68),#42,.T.);
#280=CLOSED_SHELL($,(#256,#257,#258,#259,#260,#261,#262,#263));
#281=CLOSED_SHELL($,(#264,#265,#266));
#282=CLOSED_SHELL($,(#267,#268,#269,#270));
#283=CLOSED_SHELL($,(#271,#272,#273,#274,#275,#276,#277,#278,#279));
#284=MANIFOLD_SOLID_BREP('Volumenk\X\F6rper1',#280);
#285=MANIFOLD_SOLID_BREP('Volumenk\X\F6rper2',#281);
#286=MANIFOLD_SOLID_BREP('Volumenk\X\F6rper2',#282);
#287=MANIFOLD_SOLID_BREP('Volumenk\X\F6rper1',#283);
#288=AXIS2_PLACEMENT_3D('placement',#447,#341,#342);
#289=AXIS2_PLACEMENT_3D($,#448,#343,#344);
#290=AXIS2_PLACEMENT_3D($,#450,#345,#346);
#291=AXIS2_PLACEMENT_3D($,#452,#347,#348);
#292=AXIS2_PLACEMENT_3D($,#453,#349,#350);
#293=AXIS2_PLACEMENT_3D($,#455,#351,#352);
#294=AXIS2_PLACEMENT_3D($,#456,#353,#354);
#295=AXIS2_PLACEMENT_3D($,#458,#355,#356);
#296=AXIS2_PLACEMENT_3D($,#459,#357,#358);
#297=AXIS2_PLACEMENT_3D($,#461,#359,#360);
#298=AXIS2_PLACEMENT_3D($,#462,#361,#362);
#299=AXIS2_PLACEMENT_3D($,#464,#363,#364);
#300=AXIS2_PLACEMENT_3D($,#465,#365,#366);
#301=AXIS2_PLACEMENT_3D($,#467,#367,#368);
#302=AXIS2_PLACEMENT_3D($,#468,#369,#370);
#303=AXIS2_PLACEMENT_3D($,#469,#371,#372);
#304=AXIS2_PLACEMENT_3D('placement',#470,#373,#374);
#305=AXIS2_PLACEMENT_3D($,#471,#375,#376);
#306=AXIS2_PLACEMENT_3D($,#473,#377,#378);
#307=AXIS2_PLACEMENT_3D($,#474,#379,#380);
#308=AXIS2_PLACEMENT_3D($,#476,#381,#382);
#309=AXIS2_PLACEMENT_3D($,#477,#383,#384);
#310=AXIS2_PLACEMENT_3D('placement',#478,#385,#386);
#311=AXIS2_PLACEMENT_3D($,#479,#387,#388);
#312=AXIS2_PLACEMENT_3D($,#481,#389,#390);
#313=AXIS2_PLACEMENT_3D($,#482,#391,#392);
#314=AXIS2_PLACEMENT_3D($,#484,#393,#394);
#315=AXIS2_PLACEMENT_3D($,#485,#395,#396);
#316=AXIS2_PLACEMENT_3D($,#487,#397,#398);
#317=AXIS2_PLACEMENT_3D($,#488,#399,#400);
#318=AXIS2_PLACEMENT_3D('placement',#489,#401,#402);
#319=AXIS2_PLACEMENT_3D($,#490,#403,#404);
#320=AXIS2_PLACEMENT_3D($,#492,#405,#406);
#321=AXIS2_PLACEMENT_3D($,#494,#407,#408);
#322=AXIS2_PLACEMENT_3D($,#495,#409,#410);
#323=AXIS2_PLACEMENT_3D($,#497,#411,#412);
#324=AXIS2_PLACEMENT_3D($,#498,#413,#414);
#325=AXIS2_PLACEMENT_3D($,#499,#415,#416);
#326=AXIS2_PLACEMENT_3D($,#501,#417,#418);
#327=AXIS2_PLACEMENT_3D($,#502,#419,#420);
#328=AXIS2_PLACEMENT_3D($,#504,#421,#422);
#329=AXIS2_PLACEMENT_3D($,#505,#423,#424);
#330=AXIS2_PLACEMENT_3D($,#507,#425,#426);
#331=AXIS2_PLACEMENT_3D($,#508,#427,#428);
#332=AXIS2_PLACEMENT_3D($,#510,#429,#430);
#333=AXIS2_PLACEMENT_3D($,#511,#431,#432);
#334=AXIS2_PLACEMENT_3D($,#513,#433,#434);
#335=AXIS2_PLACEMENT_3D($,#514,#435,#436);
#336=AXIS2_PLACEMENT_3D('placement',#515,#437,#438);
#337=AXIS2_PLACEMENT_3D($,#516,#439,#440);
#338=AXIS2_PLACEMENT_3D($,#517,#441,#442);
#339=AXIS2_PLACEMENT_3D($,#518,#443,#444);
#340=AXIS2_PLACEMENT_3D($,#519,#445,#446);
#341=DIRECTION('axis',(0.,0.,1.));
#342=DIRECTION('refdir',(1.,0.,0.));
#343=DIRECTION('center_axis',(1.,0.,0.));
#344=DIRECTION('ref_axis',(0.,1.,0.));
#345=DIRECTION('center_axis',(1.,0.,0.));
#346=DIRECTION('ref_axis',(0.,1.,0.));
#347=DIRECTION('center_axis',(1.,0.,0.));
#348=DIRECTION('ref_axis',(0.,1.,0.));
#349=DIRECTION('center_axis',(1.,0.,0.));
#350=DIRECTION('ref_axis',(0.,1.,0.));
#351=DIRECTION('center_axis',(1.,0.,0.));
#352=DIRECTION('ref_axis',(0.,1.,0.));
#353=DIRECTION('center_axis',(-1.,0.,0.));
#354=DIRECTION('ref_axis',(0.,1.,0.));
#355=DIRECTION('center_axis',(1.,0.,0.));
#356=DIRECTION('ref_axis',(0.,1.,0.));
#357=DIRECTION('center_axis',(-1.,0.,0.));
#358=DIRECTION('ref_axis',(0.,1.,0.));
#359=DIRECTION('center_axis',(1.,0.,0.));
#360=DIRECTION('ref_axis',(0.,1.,0.));
#361=DIRECTION('center_axis',(1.,0.,0.));
#362=DIRECTION('ref_axis',(0.,0.,-1.));
#363=DIRECTION('center_axis',(1.,0.,0.));
#364=DIRECTION('ref_axis',(0.,1.,0.));
#365=DIRECTION('center_axis',(1.,0.,0.));
#366=DIRECTION('ref_axis',(0.,1.,0.));
#367=DIRECTION('center_axis',(1.,0.,0.));
#368=DIRECTION('ref_axis',(0.,1.,0.));
#369=DIRECTION('center_axis',(1.,0.,0.));
#370=DIRECTION('ref_axis',(0.,0.,-1.));
#371=DIRECTION('center_axis',(-1.,0.,0.));
#372=DIRECTION('ref_axis',(0.,0.,1.));
#373=DIRECTION('axis',(0.,0.,1.));
#374=DIRECTION('refdir',(1.,0.,0.));
#375=DIRECTION('center_axis',(-1.,0.,0.));
#376=DIRECTION('ref_axis',(0.,0.,1.));
#377=DIRECTION('center_axis',(1.,0.,0.));
#378=DIRECTION('ref_axis',(0.,1.,0.));
#379=DIRECTION('center_axis',(1.,0.,0.));
#380=DIRECTION('ref_axis',(0.,1.,0.));
#381=DIRECTION('center_axis',(1.,0.,0.));
#382=DIRECTION('ref_axis',(0.,1.,0.));
#383=DIRECTION('center_axis',(1.,0.,0.));
#384=DIRECTION('ref_axis',(0.,0.,-1.));
#385=DIRECTION('axis',(0.,0.,1.));
#386=DIRECTION('refdir',(1.,0.,0.));
#387=DIRECTION('center_axis',(-1.,0.,0.));
#388=DIRECTION('ref_axis',(0.,0.,1.));
#389=DIRECTION('center_axis',(1.,0.,0.));
#390=DIRECTION('ref_axis',(0.,1.,0.));
#391=DIRECTION('center_axis',(1.,0.,0.));
#392=DIRECTION('ref_axis',(0.,1.,0.));
#393=DIRECTION('center_axis',(1.,0.,0.));
#394=DIRECTION('ref_axis',(0.,1.,0.));
#395=DIRECTION('center_axis',(1.,0.,0.));
#396=DIRECTION('ref_axis',(0.,1.,0.));
#397=DIRECTION('center_axis',(1.,0.,0.));
#398=DIRECTION('ref_axis',(0.,1.,0.));
#399=DIRECTION('center_axis',(1.,0.,0.));
#400=DIRECTION('ref_axis',(0.,0.,-1.));
#401=DIRECTION('axis',(0.,0.,1.));
#402=DIRECTION('refdir',(1.,0.,0.));
#403=DIRECTION('center_axis',(1.,0.,0.));
#404=DIRECTION('ref_axis',(1.11648522276687E-016,1.,0.));
#405=DIRECTION('center_axis',(1.,0.,0.));
#406=DIRECTION('ref_axis',(1.11648522276687E-016,1.,0.));
#407=DIRECTION('center_axis',(1.,0.,0.));
#408=DIRECTION('ref_axis',(1.11648522276687E-016,1.,0.));
#409=DIRECTION('center_axis',(-1.,0.,0.));
#410=DIRECTION('ref_axis',(1.11648522276687E-016,1.,0.));
#411=DIRECTION('center_axis',(1.,0.,0.));
#412=DIRECTION('ref_axis',(1.11648522276687E-016,1.,0.));
#413=DIRECTION('center_axis',(1.,0.,0.));
#414=DIRECTION('ref_axis',(0.,0.,-1.));
#415=DIRECTION('center_axis',(-1.,0.,0.));
#416=DIRECTION('ref_axis',(0.,0.,1.));
#417=DIRECTION('center_axis',(1.,0.,0.));
#418=DIRECTION('ref_axis',(1.11648522276687E-016,1.,0.));
#419=DIRECTION('center_axis',(1.,0.,0.));
#420=DIRECTION('ref_axis',(1.11648522276687E-016,1.,0.));
#421=DIRECTION('center_axis',(1.,0.,0.));
#422=DIRECTION('ref_axis',(1.11648522276687E-016,1.,0.));
#423=DIRECTION('center_axis',(1.,0.,0.));
#424=DIRECTION('ref_axis',(0.,0.,-1.));
#425=DIRECTION('center_axis',(1.,0.,0.));
#426=DIRECTION('ref_axis',(1.11648522276687E-016,1.,0.));
#427=DIRECTION('center_axis',(1.,0.,0.));
#428=DIRECTION('ref_axis',(1.11648522276687E-016,1.,0.));
#429=DIRECTION('center_axis',(1.,0.,0.));
#430=DIRECTION('ref_axis',(1.11648522276687E-016,1.,0.));
#431=DIRECTION('center_axis',(1.,0.,0.));
#432=DIRECTION('ref_axis',(1.11648522276687E-016,1.,0.));
#433=DIRECTION('center_axis',(1.,0.,0.));
#434=DIRECTION('ref_axis',(1.11648522276687E-016,1.,0.));
#435=DIRECTION('center_axis',(1.,0.,0.));
#436=DIRECTION('ref_axis',(0.,0.,-1.));
#437=DIRECTION('axis',(0.,0.,1.));
#438=DIRECTION('refdir',(1.,0.,0.));
#439=DIRECTION($,(0.,0.,1.));
#440=DIRECTION($,(1.,0.,0.));
#441=DIRECTION($,(0.,0.470799282368254,-0.882240350313642));
#442=DIRECTION($,(1.,0.,0.));
#443=DIRECTION($,(-5.60172270380985E-016,0.977103191090001,-0.212765960533487));
#444=DIRECTION($,(1.,0.,-2.63280963259544E-015));
#445=DIRECTION($,(-1.4511321085854E-016,-0.524694976194036,0.85129030415995));
#446=DIRECTION($,(1.,-1.67952555746575E-016,6.69446701564399E-017));
#447=CARTESIAN_POINT('',(0.,0.,0.));
#448=CARTESIAN_POINT('Origin',(0.0999999999999943,0.,0.));
#449=CARTESIAN_POINT('',(0.199999999999989,9.89999999999999,0.));
#450=CARTESIAN_POINT('Origin',(0.199999999999989,0.,0.));
#451=CARTESIAN_POINT('',(0.,9.69999999999997,0.));
#452=CARTESIAN_POINT('Origin',(0.,0.,0.));
#453=CARTESIAN_POINT('Origin',(0.688884837060044,0.,0.));
#454=CARTESIAN_POINT('',(1.1777696741201,9.89999999999999,0.));
#455=CARTESIAN_POINT('Origin',(1.1777696741201,0.,0.));
#456=CARTESIAN_POINT('Origin',(1.2777696741201,0.,0.));
#457=CARTESIAN_POINT('',(1.3777696741201,9.69999999999999,0.));
#458=CARTESIAN_POINT('Origin',(1.3777696741201,0.,0.));
#459=CARTESIAN_POINT('Origin',(1.43563537407701,0.,0.));
#460=CARTESIAN_POINT('',(1.49350107403392,9.26808453549055,0.));
#461=CARTESIAN_POINT('Origin',(1.49350107403392,0.,0.));
#462=CARTESIAN_POINT('Origin',(7.41817397053428,0.,0.));
#463=CARTESIAN_POINT('',(7.41817397053428,14.,0.));
#464=CARTESIAN_POINT('Origin',(7.41817397053428,0.,0.));
#465=CARTESIAN_POINT('Origin',(219.709086985267,0.,0.));
#466=CARTESIAN_POINT('',(432.,14.,0.));
#467=CARTESIAN_POINT('Origin',(432.,0.,0.));
#468=CARTESIAN_POINT('Origin',(432.,7.00000000000002,0.));
#469=CARTESIAN_POINT('Origin',(0.,4.84999999999998,0.));
#470=CARTESIAN_POINT('',(0.,0.,0.));
#471=CARTESIAN_POINT('Origin',(0.,2.5,0.));
#472=CARTESIAN_POINT('',(0.,5.,0.));
#473=CARTESIAN_POINT('Origin',(0.,0.,0.));
#474=CARTESIAN_POINT('Origin',(180.,0.,0.));
#475=CARTESIAN_POINT('',(360.,5.00000000000008,0.));
#476=CARTESIAN_POINT('Origin',(360.,0.,0.));
#477=CARTESIAN_POINT('Origin',(360.,2.50000000000006,0.));
#478=CARTESIAN_POINT('',(0.,0.,0.));
#479=CARTESIAN_POINT('Origin',(-9.,2.25,0.));
#480=CARTESIAN_POINT('',(-9.,4.5,0.));
#481=CARTESIAN_POINT('Origin',(-9.,0.,0.));
#482=CARTESIAN_POINT('Origin',(-8.75,0.,0.));
#483=CARTESIAN_POINT('',(-8.5,5.,0.));
#484=CARTESIAN_POINT('Origin',(-8.5,0.,0.));
#485=CARTESIAN_POINT('Origin',(-4.25,0.,0.));
#486=CARTESIAN_POINT('',(-1.53080849893419E-015,5.,0.));
#487=CARTESIAN_POINT('Origin',(-1.11022302462516E-015,0.,0.));
#488=CARTESIAN_POINT('Origin',(-7.65404249467096E-016,2.5,0.));
#489=CARTESIAN_POINT('',(0.,0.,0.));
#490=CARTESIAN_POINT('Origin',(14.25,0.,0.));
#491=CARTESIAN_POINT('',(20.5,5.,0.));
#492=CARTESIAN_POINT('Origin',(20.5,0.,0.));
#493=CARTESIAN_POINT('',(8.,5.,0.));
#494=CARTESIAN_POINT('Origin',(8.,0.,0.));
#495=CARTESIAN_POINT('Origin',(20.75,0.,0.));
#496=CARTESIAN_POINT('',(21.,4.49999999999997,0.));
#497=CARTESIAN_POINT('Origin',(21.,0.,0.));
#498=CARTESIAN_POINT('Origin',(21.,2.24999999999999,0.));
#499=CARTESIAN_POINT('Origin',(0.,7.00000000000002,0.));
#500=CARTESIAN_POINT('',(0.,14.0000000000001,0.));
#501=CARTESIAN_POINT('Origin',(0.,0.,0.));
#502=CARTESIAN_POINT('Origin',(0.179755804574699,0.,0.));
#503=CARTESIAN_POINT('',(0.359511609149399,14.,0.));
#504=CARTESIAN_POINT('Origin',(0.359511609149399,0.,0.));
#505=CARTESIAN_POINT('Origin',(0.359511609149399,0.,0.));
#506=CARTESIAN_POINT('',(6.4,8.75,0.));
#507=CARTESIAN_POINT('Origin',(6.4,0.,0.));
#508=CARTESIAN_POINT('Origin',(6.56076951545867,0.,0.));
#509=CARTESIAN_POINT('',(6.72153903091734,9.95,0.));
#510=CARTESIAN_POINT('Origin',(6.72153903091734,0.,0.));
#511=CARTESIAN_POINT('Origin',(7.36076951545867,0.,0.));
#512=CARTESIAN_POINT('',(8.,9.95,0.));
#513=CARTESIAN_POINT('Origin',(8.,0.,0.));
#514=CARTESIAN_POINT('Origin',(8.,7.475,0.));
#515=CARTESIAN_POINT('',(0.,0.,0.));
#516=CARTESIAN_POINT($,(0.,0.,0.));
#517=CARTESIAN_POINT($,(-10.,0.,0.));
#518=CARTESIAN_POINT($,(-10.,-1.11022302462516E-015,-2.05391259555654E-014));
#519=CARTESIAN_POINT($,(432.,2.80066072264678E-029,-1.62289062149577E-029));
#520=UNCERTAINTY_MEASURE_WITH_UNIT(LENGTH_MEASURE(0.01),#530,
'DISTANCE_ACCURACY_VALUE',
'Maximum model space distance between geometric entities at asserted c
onnectivities');
#521=UNCERTAINTY_MEASURE_WITH_UNIT(LENGTH_MEASURE(0.01),#530,
'DISTANCE_ACCURACY_VALUE',
'Maximum model space distance between geometric entities at asserted c
onnectivities');
#522=UNCERTAINTY_MEASURE_WITH_UNIT(LENGTH_MEASURE(0.01),#530,
'DISTANCE_ACCURACY_VALUE',
'Maximum model space distance between geometric entities at asserted c
onnectivities');
#523=UNCERTAINTY_MEASURE_WITH_UNIT(LENGTH_MEASURE(0.01),#530,
'DISTANCE_ACCURACY_VALUE',
'Maximum model space distance between geometric entities at asserted c
onnectivities');
#524=UNCERTAINTY_MEASURE_WITH_UNIT(LENGTH_MEASURE(0.01),#530,
'DISTANCE_ACCURACY_VALUE',
'Maximum model space distance between geometric entities at asserted c
onnectivities');
#525=(
GEOMETRIC_REPRESENTATION_CONTEXT(3)
GLOBAL_UNCERTAINTY_ASSIGNED_CONTEXT((#520))
GLOBAL_UNIT_ASSIGNED_CONTEXT((#530,#533,#531))
REPRESENTATION_CONTEXT('','3D')
);
#526=(
GEOMETRIC_REPRESENTATION_CONTEXT(3)
GLOBAL_UNCERTAINTY_ASSIGNED_CONTEXT((#521))
GLOBAL_UNIT_ASSIGNED_CONTEXT((#530,#533,#531))
REPRESENTATION_CONTEXT('','3D')
);
#527=(
GEOMETRIC_REPRESENTATION_CONTEXT(3)
GLOBAL_UNCERTAINTY_ASSIGNED_CONTEXT((#522))
GLOBAL_UNIT_ASSIGNED_CONTEXT((#530,#533,#531))
REPRESENTATION_CONTEXT('','3D')
);
#528=(
GEOMETRIC_REPRESENTATION_CONTEXT(3)
GLOBAL_UNCERTAINTY_ASSIGNED_CONTEXT((#523))
GLOBAL_UNIT_ASSIGNED_CONTEXT((#530,#533,#531))
REPRESENTATION_CONTEXT('','3D')
);
#529=(
GEOMETRIC_REPRESENTATION_CONTEXT(3)
GLOBAL_UNCERTAINTY_ASSIGNED_CONTEXT((#524))
GLOBAL_UNIT_ASSIGNED_CONTEXT((#530,#533,#531))
REPRESENTATION_CONTEXT('','3D')
);
#530=(
LENGTH_UNIT()
NAMED_UNIT(*)
SI_UNIT(.MILLI.,.METRE.)
);
#531=(
NAMED_UNIT(*)
SI_UNIT($,.STERADIAN.)
SOLID_ANGLE_UNIT()
);
#532=DIMENSIONAL_EXPONENTS(0.,0.,0.,0.,0.,0.,0.);
#533=(
CONVERSION_BASED_UNIT('degree',#535)
NAMED_UNIT(#532)
PLANE_ANGLE_UNIT()
);
#534=(
NAMED_UNIT(*)
PLANE_ANGLE_UNIT()
SI_UNIT($,.RADIAN.)
);
#535=PLANE_ANGLE_MEASURE_WITH_UNIT(PLANE_ANGLE_MEASURE(0.01745329252),#534);
#536=SHAPE_DEFINITION_REPRESENTATION(#541,#550);
#537=SHAPE_DEFINITION_REPRESENTATION(#542,#551);
#538=SHAPE_DEFINITION_REPRESENTATION(#543,#552);
#539=SHAPE_DEFINITION_REPRESENTATION(#544,#553);
#540=SHAPE_DEFINITION_REPRESENTATION(#545,#554);
#541=PRODUCT_DEFINITION_SHAPE('',$,#556);
#542=PRODUCT_DEFINITION_SHAPE('',$,#557);
#543=PRODUCT_DEFINITION_SHAPE('',$,#558);
#544=PRODUCT_DEFINITION_SHAPE('',$,#559);
#545=PRODUCT_DEFINITION_SHAPE('',$,#560);
#546=PRODUCT_DEFINITION_SHAPE($,$,#22);
#547=PRODUCT_DEFINITION_SHAPE($,$,#23);
#548=PRODUCT_DEFINITION_SHAPE($,$,#24);
#549=PRODUCT_DEFINITION_SHAPE($,$,#25);
#550=SHAPE_REPRESENTATION('',(#288),#525);
#551=SHAPE_REPRESENTATION('',(#304),#526);
#552=SHAPE_REPRESENTATION('',(#310),#527);
#553=SHAPE_REPRESENTATION('',(#318),#528);
#554=SHAPE_REPRESENTATION('',(#336,#337,#338,#339,#340),#529);
#555=PRODUCT_DEFINITION_CONTEXT('3D Mechanical Parts',#567,'design');
#556=PRODUCT_DEFINITION('Zylinder_28','Zylinder_28',#561,#555);
#557=PRODUCT_DEFINITION('Kolbenstange_10','Kolbenstange_10',#562,#555);
#558=PRODUCT_DEFINITION('Gewindeanschlu\X\DF_D0','Gewindeanschlu\X\DF_
D0',#563,#555);
#559=PRODUCT_DEFINITION('Gewindeanschlu\X\DF_M0_28',
'Gewindeanschlu\X\DF_M0_28',#564,#555);
#560=PRODUCT_DEFINITION('D0M0ZF3-350-450--003-200N',
'D0M0ZF3-350-450--003-200N',#565,#555);
#561=PRODUCT_DEFINITION_FORMATION('',$,#569);
#562=PRODUCT_DEFINITION_FORMATION('',$,#570);
#563=PRODUCT_DEFINITION_FORMATION('',$,#571);
#564=PRODUCT_DEFINITION_FORMATION('',$,#572);
#565=PRODUCT_DEFINITION_FORMATION('',$,#573);
#566=APPLICATION_PROTOCOL_DEFINITION('international standard',
'automotive_design',2009,#567);
#567=APPLICATION_CONTEXT(
'Core Data for Automotive Mechanical Design Process');
#568=PRODUCT_CONTEXT('3D Mechanical Parts',#567,'mechanical');
#569=PRODUCT('Zylinder_28','Zylinder_28',$,(#568));
#570=PRODUCT('Kolbenstange_10','Kolbenstange_10',$,(#568));
#571=PRODUCT('Gewindeanschlu\X\DF_D0','Gewindeanschlu\X\DF_D0',$,(#568));
#572=PRODUCT('Gewindeanschlu\X\DF_M0_28','Gewindeanschlu\X\DF_M0_28',$,
(#568));
#573=PRODUCT('D0M0ZF3-350-450--003-200N','D0M0ZF3-350-450--003-200N',$,
(#568));
#574=PRESENTATION_STYLE_ASSIGNMENT((#577));
#575=PRESENTATION_STYLE_ASSIGNMENT((#578));
#576=PRESENTATION_STYLE_ASSIGNMENT((#579));
#577=SURFACE_STYLE_USAGE(.BOTH.,#580);
#578=SURFACE_STYLE_USAGE(.BOTH.,#581);
#579=SURFACE_STYLE_USAGE(.BOTH.,#582);
#580=SURFACE_SIDE_STYLE($,(#583));
#581=SURFACE_SIDE_STYLE($,(#584));
#582=SURFACE_SIDE_STYLE($,(#585));
#583=SURFACE_STYLE_FILL_AREA(#586);
#584=SURFACE_STYLE_FILL_AREA(#587);
#585=SURFACE_STYLE_FILL_AREA(#588);
#586=FILL_AREA_STYLE($,(#589));
#587=FILL_AREA_STYLE($,(#590));
#588=FILL_AREA_STYLE($,(#591));
#589=FILL_AREA_STYLE_COLOUR($,#592);
#590=FILL_AREA_STYLE_COLOUR($,#593);
#591=FILL_AREA_STYLE_COLOUR($,#594);
#592=COLOUR_RGB('',0.752941176470588,0.752941176470588,0.752941176470588);
#593=COLOUR_RGB('',0.949019607843137,0.925490196078431,0.933333333333333);
#594=COLOUR_RGB('',0.305882352941176,0.305882352941176,0.305882352941176);
ENDSEC;
END-ISO-10303-21;
